» » »

Muse, Knights Of Cydonia Bass tabs (ver.3)

Artists:  A B C D E F G H I J K L M N O P Q R S T U V W X Y Z # 

Knights Of Cydonia Bass tabs (ver.3)

Muse Tabs
Rating:
0/5 (0 votes)
Knights Of Cydonia lessons Tabs too difficult? Try these video lessons and learn fast
                Muse-knights of cydonia
I actually play the guitar, but I know the chords to the song so I transferred the 
notes onto a bass and I think that it’s right.

Intro
G|-----------------------------|
D|-----------------------| X 4-|
A|-----------------------------|
E|--0-2-3-----5-5-7------------|

Verse-play each note in a galloping rhythm. I’m not sure the rhythm or amount times on 
fret is but the fret numbering is all correct so just play as you wish.

G|------------------------------------------------------------|
D|------------------------------------------------------------|
A|------------------------------------------------------------|
E|--0-0---0-0---0-0---0-0---0-0---0-0---0-0---0-0-------------|

G|-----------------------------|------------------------------|
D|-----------------------------|------------------------------|
A|-----------------------------|--3-3---3-3---3-3---3-3-------|
E|--3-3---3-3---3-3---3-3--|----------------------------------|

G|-----------------------------|-------------------------------|
D|-----------------------------|-------------------------------|
A|-----------------------------|--2-2---2-2---2-2---2-2--------|
E|--3-3---3-3---3-3---3-3--|-----------------------------------|

G|-----------------------------|-------------------------------|
D|-----------------------------|--1-1---1-1---1-1---1-1--------|
A|--3-3---3-3---3-3---3-3--|-----------------------------------|
E|-----------------------------|-------------------------------|

G|-------------------------------|
D|-------------------------------|
A|-------------------------------|
E|--3-3---3-3---3-3---3-3--------|

G|-----------------------------|-------------------------------|
D|-----------------------------|--1-1---1-1---1-1---1-1--------|
A|--3-3---3-3---3-3---3-3--|-----------------------------------|
E|-----------------------------|-------------------------------|

G|-----------------------------|-------------------------------|
D|-----------------------------|--1-1---1-1---1-1---1-1--------|
A|-----------------------------|-------------------------------|
E|--4-4---4-4---4-4---4-4--|-----------------------------------|

G|-----------------------------|-------------------------------|
D|-----------------------------|-------------------------------|
A|-----------------------------|-------------------------------|
E|--3-3---3-3---3-3---3-3--|--4-4---4-4---4-4---4-4------------|

G|-----------------------------|-------------------------------|
D|--1-1---1-1---1-1---1-1--|-----------------------------------|
A|-----------------------------|-------------------------------|
E|-----------------------------|--0-0---0-0---0-0---0-0--------|

G|-------------------------------|
D|-------------------------------|
A|--2-2---2-2---2-2---2-2--------|
E|-------------------------------|

G|-----------------------------|-------------------------------|
D|--1-1---1-1---1-1---1-1--|-----------------------------------|
A|-----------------------------|-------------------------------|
E|-----------------------------|--0-0---0-0---0-0---0-0--------|

G|-----------------------------|-------------------------------|
D|-----------------------------|--1-1---1-1---1-1---1-1--------|
A|--2-2---2-2---2-2---2-2--|-----------------------------------|
E|-----------------------------|-------------------------------|

G|------------------------------------------------------------|
D|------------------------------------------------------------|
A|------------------------------------------------------------|
E|--4-4---4-4---4-4---4-4----4-4---4-4---4-4---4-4------------|


This is the bit where the vocals come in. ‘come ride with me’

G|-----------------------------|-------------------------------|
D|-----------------------------|-------------------------------|
A|-----------------------------|--2-2---2-2---2-2---2-2--------|
E|--4-4---4-4---4-4---4-4--|-----------------------------------|

G|-----------------------------|-------------------------------|
D|-----------------------------|-------------------------------|
A|-----------------------------|--2-2---2-2---2-2---2-2--------|
E|--0-0---0-0---0-0---0-0--|-----------------------------------|

G|-----------------------------|-------------------------------|
D|--1-1---1-1---1-1---1-1--|-----------------------------------|
A|-----------------------------|-------------------------------|
E|-----------------------------|--0-0---0-0---0-0---0-0--------|

G|-----------------------------|-------------------------------|
D|-----------------------------|-------------------------------|
A|-----------------------------|--2-2---2-2---2-2---2-2--------|
E|--3-3---3-3---3-3---3-3--|-----------------------------------|

G|-----------------------------|-------------------------------|
D|-----------------------------|-------------------------------|
A|-----------------------------|--2-2---2-2---2-2---2-2--------|
E|--0-0---0-0---0-0---0-0--|-----------------------------------|

G|-----------------------------|-------------------------------|
D|-----------------------------|-------------------------------|
A|--3-3---3-3---3-3---3-3--|-----------------------------------|
E|-----------------------------|--3-3---3-3---3-3---3-3--------|

G|-----------------------------|-------------------------------|
D|-----------------------------|-------------------------------|
A|--2-2---2-2---2-2---2-2--|--3-3---3-3---3-3---3-3------------|
E|-----------------------------|-------------------------------|

G|-----------------------------|-------------------------------|
D|-----------------------------|-------------------------------|
A|-----------------------------|--2-2---2-2---2-2---2-2--------|
E|--3-3---3-3---3-3---3-3--|-----------------------------------|

G|-----------------------------------------------------------|
D|-----------------------------------------------------------|
A|-----------------------------------------------------------|
E|--0-0---0-0---0-0---0-0---0-0---0-0---0-0---0-0------------|

Bridge
G|-----------------------------|
D|-----------------------| X 4-|
A|-----------------------------|
E|--0-2-3-----5-5-7------------|

Chorus
G|-------------------|
D|-------------------|
A|-------------------| X 4 (this is the little bit into the chorus)
E|--0-0-0-0-0-0------|

There is no bass for the first time around the chorus which is
‘no-ones gonna…..fight to survive’

When the bass does come in there are two choices:

1.  G|-----------------|    G|-----------------|
    D|-----------------|    D|-----------------|
    A|-----------------|x3  A|--2-2-2-2-2-2----|x3
    E|--0-0-0-0-0-0----|    E|-----------------|

    G|-----------------|      G|-----------------|
    D|-----------------|      D|-----------------|
    A|--0-0-0-0-0-0----|x3    A|-----------------|x3  (the whole thing
    E|-----------------|      E|--0-0-0-0-0-0----|        three times)
 2. ‘no-ones gonna take me alive.’
G|----------------------------------|
D|--2-2-2-2-2-2-2-2-2-2-2-2-4-4-4-4-|
A|----------------------------------|
E|----------------------------------|

G|----------------------------------------------------------|
D|-5-5-5-5-5-5-5-5-5-5-5-5-7-5-5-7-5------------------------| X 2
A|-------------------------------------------7-6-6-6-6-6-6--|
E|----------------------------------------------------------|

Solo thing

G|---------------------------------------------|
D|--------------------------------------5------|
A|-5-7-7-7-7—5-7-7-7-7—5-7-7-7-7--5-7-5---5-7--|
E|---------------------------------------------|

G|-----------------------------------------------|
D|-----------------------------------------------|
A|-5----------5----------5----------5-----5-7-7--|
E|---7-7-7-7----7-7-7-7----7-7-7-7----7-7--------|

G|--------------------------------------------|
D|--------------------------------------------|
A|-7-0-0-0-0—7-0-0-0-0—7-0-0-0-0—7-0-0--------|
E|-------------------------------------7-5-3--|

G|------------------------------------------|
D|------------------------------------------|
A|------------------------------------------|
E|-3-0-0-0-0—3-0-0-0-0—3-0-0-0-0—3-0-0-0-0--|

Outro solo

G|------------------------------------------|
D|------------------------------------------|
A|------------------------------------------|
E|-3-0-0-0-0—3-0-0-0-0—3-0-0-0-0—3-0-3-5-7--|

G|--------------------------------------------|
D|--------------------------------------------|
A|-------------------------------5-7-7-5-7-7--|
E|-3-0-0-0-0—3-0-0-0-0—3-0-0-0-0--------------|
            

comments powered by Disqus
↑ Back to top | Muse Bass for Knights Of Cydonia. Lyrics for acoustic guitar and electric guitar. Tablatures and chords are parodies/interpretations of the original songs. You may use it for private study, scholarship, research or language learning purposes only