>
 >
Knights Of Cydonia 2

Knights Of Cydonia 2 Bass Tabs

Muse - Knights Of Cydonia 2 chords, tabs, tablatures, lyrics

Guitar lessons | Add/correct | Request | Top 50 tabs Artists:  A B C D E F G H I J K L M N O P Q R S T U V W X Y Z 0-9

Knights Of Cydonia 2 Bass Tabs – Muse

CD, Sheet music, Poster

Do you like Knights Of Cydonia 2? Share with your friends now
Bass TabsBass Tabs v2Bass Tabs v3Bass Tabs v4ChordsChords v2Chords v3Drum TabsTabsTabs v2Tabs v3Tabs v4Tabs v5Tabs v6Ukulele
Band: Muse

Tuning: Standard

/: Slide up
\: Slide down
h: Hammer on
p: Pull off

Notes:
I know Chris Wolstenholme doesn't play the intro like this, but
it sounds better to me, and is easier to play.


Intro (00:19)
G||-------------------------------|-----------------------|
D||-------------------------------|-----------------------|
A||-------------------------------|--0--------0--------2--|
E||--0---------2---------3--------|-----------------------|x3

G||-------------------------------|---------------------------------------|
D||-------------------------------|---------------------------------------|
A||-------------------------------|------------------------------------0--|
E||--0---------2---------3--------|--5--------5--------7------------------|


Verse (0:48)
G||---------------------------------------|---------------------------------------|
D||---------------------------------------|---------------------------------------|
A||---------------------------------------|---------------------------------------|
E||---0-0-0----0-0-0-----0-0-0----0-0-0---|---0-0-0----0-0-0-----0-0-0----0-0-0---|

G||---------------------------------------|---------------------------------------|
D||---------------------------------------|---------------------------------------|
A||---------------------------------------|---------------------------------------|
E||---0-0-0----0-0-0-----0-0-0----0-0-0---|---0-0-0----0-0-0-----0-0-0----0-0-0---|

G||---------------------------------------|---------------------------------------|
D||---------------------------------------|---------------------------------------|
A||---------------------------------------|---------------------------------------|
E||---0-0-0----0-0-0-----0-0-0----0-0-0---|---3-3-3----3-3-3-----3-3-3----3-3-3---|

G||---------------------------------------|---------------------------------------|
D||---------------------------------------|---------------------------------------|
A||---3-3-3----3-3-3-----3-3-3----3-3-3---|---------------------------------------|
E||---------------------------------------|---3-3-3----3-3-3-----3-3-3----3-3-3---|

G||---------------------------------------|---------------------------------------|
D||---------------------------------------|---------------------------------------|
A||---2-2-2----2-2-2-----2-2-2----2-2-2---|---3-3-3----3-3-3-----3-3-3----3-3-3---|
E||---------------------------------------|---------------------------------------|

G||---------------------------------------|---------------------------------------|
D||---------------------------------------|---------------------------------------|
A||---6-6-6----6-6-6-----6-6-6----6-6-6---|---------------------------------------|
E||---------------------------------------|---3-3-3----3-3-3-----3-3-3----3-3-3---|

G||---------------------------------------|---------------------------------------|
D||---------------------------------------|---------------------------------------|
A||---------------------------------------|---3-3-3----3-3-3-----3-3-3----3-3-3---|
E||---3-3-3----3-3-3-----3-3-3----3-3-3---|---------------------------------------|

G||---------------------------------------|---------------------------------------|
D||---------------------------------------|---------------------------------------|
A||---------------------------------------|---------------------------------------|
E||---3-3-3----3-3-3-----3-3-3----3-3-3---|---4-4-4----4-4-4-----4-4-4----4-4-4---|

G||---------------------------------------|---------------------------------------|
D||---------------------------------------|---------------------------------------|
A||---6-6-6----6-6-6-----6-6-6----6-6-6---|---------------------------------------|
E||---------------------------------------|---3-3-3----3-3-3-----3-3-3----3-3-3---|

G||---------------------------------------|---------------------------------------|
D||---------------------------------------|---------------------------------------|
A||---------------------------------------|---6-6-6----6-6-6-----6-6-6----6-6-6---|
E||---4-4-4----4-4-4-----4-4-4----4-4-4---|---------------------------------------|

G||---------------------------------------|---------------------------------------|
D||---------------------------------------|---------------------------------------|
A||---------------------------------------|---3-3-3----3-3-3-----3-3-3----3-3-3---|
E||---3-3-3----3-3-3-----3-3-3----3-3-3---|---------------------------------------|

G||---------------------------------------|---------------------------------------|
D||---------------------------------------|---------------------------------------|
A||---3-3-3----3-3-3-----3-3-3----3-3-3---|---3-3-3----3-3-3-----3-3-3----3-3-3---|
E||---------------------------------------|---------------------------------------|

G||---------------------------------------|---------------------------------------|
D||---------------------------------------|---------------------------------------|
A||---3-3-3----3-3-3-----3-3-3----3-3-3---|---3-3-3----3-3-3-----3-3-3----3-3-3---|
E||---------------------------------------|---------------------------------------|

G||---------------------------------------|---------------------------------------|
D||---------------------------------------|---------------------------------------|
A||---6-6-6----6-6-6-----6-6-6----6-6-6---|---------------------------------------|
E||---------------------------------------|---4-4-4----4-4-4-----4-4-4----4-4-4---|

G||---------------------------------------|---------------------------------------|
D||---------------------------------------|---------------------------------------|
A||---6-6-6----6-6-6-----6-6-6----6-6-6---|---------------------------------------|
E||---------------------------------------|---3-3-3----3-3-3-----3-3-3----3-3-3---|

G||---------------------------------------|---------------------------------------|
D||---------------------------------------|---------------------------------------|
A||---------------------------------------|---2-2-2----2-2-2-----2-2-2----2-2-2---|
E||---4-4-4----4-4-4-----4-4-4----4-4-4---|---------------------------------------|

G||---------------------------------------|---------------------------------------|
D||---------------------------------------|---------------------------------------|
A||---6-6-6----6-6-6-----6-6-6----6-6-6---|---------------------------------------|
E||---------------------------------------|---4-4-4----4-4-4-----4-4-4----4-4-4---|

G||---------------------------------------|---------------------------------------|
D||---------------------------------------|---------------------------------------|
A||---6-6-6----6-6-6-----6-6-6----6-6-6---|---7-7-7----7-7-7-----7-7-7----7-7-7---|
E||---------------------------------------|---------------------------------------|

G||---------------------------------------|---------------------------------------|
D||---------------------------------------|---------------------------------------|
A||---------------------------------------|---6-6-6----6-6-6-----6-6-6----6-6-6---|
E||---7-7-7----7-7-7-----7-7-7----7-7-7---|---------------------------------------|

G||---------------------------------------|---------------------------------------|
D||---------------------------------------|---------------------------------------|
A||---7-7-7----7-7-7-----7-7-7----7-7-7---|---------------------------------------|
E||---------------------------------------|---7-7-7----7-7-7-----7-7-7----7-7-7---|

G||---------------------------------------|---------------------------------------|
D||---------------------------------------|---------------------------------------|
A||---7-7-7----7-7-7-----7-7-7----7-7-7---|---------------------------------------|
E||---------------------------------------|---4-4-4----4-4-4-----4-4-4----4-4-4---|

G||---------------------------------------|---------------------------------------|
D||---------------------------------------|---------------------------------------|
A||---------------------------------------|---------------------------------------|
E||---4-4-4----4-4-4-----4-4-4----4-4-4---|---4-4-4----4-4-4-----4-4-4----4-4-4---|

G||---------------------------------------|---------------------------------------|
D||---------------------------------------|---------------------------------------|
A||---------------------------------------|---------------------------------------|
E||---4-4-4----4-4-4-----4-4-4----4-4-4---|---4-4-4----4-4-4-----4-4-4----4-4-4---|

G||---------------------------------------|---------------------------------------|
D||---------------------------------------|---------------------------------------|
A||---------------------------------------|---7-7-7----7-7-7-----7-7-7----7-7-7---|
E||---7-7-7----7-7-7-----7-7-7----7-7-7---|---------------------------------------|

G||---------------------------------------|---------------------------------------|
D||---------------------------------------|---------------------------------------|
A||---------------------------------------|---6-6-6----6-6-6-----6-6-6----6-6-6---|
E||---7-7-7----7-7-7-----7-7-7----7-7-7---|---------------------------------------|

G||---------------------------------------|---------------------------------------|
D||---------------------------------------|---------------------------------------|
A||---7-7-7----7-7-7-----7-7-7----7-7-7---|---------------------------------------|
E||---------------------------------------|---3-3-3----3-3-3-----3-3-3----3-3-3---|

G||---------------------------------------|---------------------------------------|
D||---------------------------------------|---------------------------------------|
A||---------------------------------------|---7-7-7----7-7-7-----7-7-7----7-7-7---|
E||---7-7-7----7-7-7-----7-7-7----7-7-7---|---------------------------------------|

G||---------------------------------------|---------------------------------------|
D||---------------------------------------|---------------------------------------|
A||---------------------------------------|---3-3-3----3-3-3-----3-3-3----3-3-3---|
E||---7-7-7----7-7-7-----7-7-7----7-7-7---|---------------------------------------|

G||---------------------------------------|---------------------------------------|
D||---------------------------------------|---------------------------------------|
A||---------------------------------------|---2-2-2----2-2-2-----2-2-2----2-2-2---|
E||---3-3-3----3-3-3-----3-3-3----3-3-3---|---------------------------------------|

G||---------------------------------------|---------------------------------------|
D||---------------------------------------|---------------------------------------|
A||---3-3-3----3-3-3-----3-3-3----3-3-3---|---------------------------------------|
E||---------------------------------------|---3-3-3----3-3-3-----3-3-3----3-3-3---|

G||---------------------------------------|---------------------------------------|
D||---------------------------------------|---------------------------------------|
A||---2-2-2----2-2-2-----2-2-2----2-2-2---|---------------------------------------|
E||---------------------------------------|---0-0-0----0-0-0-----0-0-0----0-0-0---|

G||---------------------------------------|---------------------------------------|
D||---------------------------------------|---------------------------------------|
A||---------------------------------------|---------------------------------------|
E||---0-0-0----0-0-0-----0-0-0----0-0-0---|---0-0-0----0-0-0-----0-0-0----0-0-0---|

G||---------------------------------------|---------------------------------------|
D||---------------------------------------|---------------------------------------|
A||---------------------------------------|---------------------------------------|
E||---0-0-0----0-0-0-----0-0-0----0-0-0---|---0-0-0----0-0-0-----0-0-0----0-0-0---|


Intro Again (2:40)
G||-------------------------------|-----------------------|
D||-------------------------------|-----------------------|
A||-------------------------------|--0--------0--------2--|
E||--0---------2---------3--------|-----------------------|x3

G||-------------------------------|---------------------------------------|
D||-------------------------------|---------------------------------------|
A||-------------------------------|------------------------------------0--|
E||--0---------2---------3--------|--5--------5--------7------------------|


Bridge (3:44)
G||-------------------------------------------------------------------------|
D||-------------------------------------------------------------------------|
A||-17-17-17-17-17-17-17-17-17-17-17-17-17-17-17-17-17-17-17-17-17-17-17-17-|
E||-------------------------------------------------------------------------|

G||-------------------------------------------------------------------------|
D||-------------------------------------------------------------------------|
A||-15-15-15-15-15-15-15-15-15-15-15-15-15-15-15-15-15-15-15-15-15-15-15-15-|
E||-------------------------------------------------------------------------|

G||-------------------------------------------------------------------------|
D||-------------------------------------------------------------------------|
A||-13-13-13-13-13-13-13-13-13-13-13-13-13-13-13-13-13-13-13-13-13-13-13-13-|
E||-------------------------------------------------------------------------|

G||-------------------------------------------------------------------------|
D||-------------------------------------------------------------------------|
A||-12-12-12-12-12-12-12-12-12-12-12-12-12-12-12-12-12-12-12-12-12-12-12-12-|
E||-------------------------------------------------------------------------|

G||-------------------------------------------------------------------------|
D||-------------------------------------------------------------------------|
A||-12-12-12-12-12-12-12-12-12-12-12-12-12-12-12-12-12-12-12-12-12-12-12-12-|
E||-------------------------------------------------------------------------|

G||-------------------------------------------------------------------------|
D||-------------------------------------------------------------------------|
A||-10-10-10-10-10-10-10-10-10-10-10-10-10-10-10-10-10-10-10-10-10-10-10-10-|
E||-------------------------------------------------------------------------|

G||-------------------------------------------------|
D||-------------------------------------------------|
A||-9-9-9-9-9-9-9-9-9-9-9-9-9-9-9-9-9-9-9-9-9-9-9-9-|
E||-------------------------------------------------|

G||-------------------------------------------------|
D||-------------------------------------------------|
A||-7-7-7-7-7-7-7-7-7-7-7-7-7-7-7-7-7-7-7-7-7-7-7-7-|
E||-------------------------------------------------|


Solo x6 (4:13)
G||----------------------------------------------------|
D||----------------------------------------------------|
A||--5-7-7-7---7-5-7-7-7---7-5-7-7-7---7-5-7-7----10---|
E||----------------------------------------------------|

G||----------------------------------------------------|
D||----------------------------------------------------|
A||--5-----------5-----------5-----------5-----5-7-7---|
E||----7-7-7---7---7-7-7---7---7-7-7---7---7-7---------|

G||----------------------------------------------------|
D||----------------------------------------------------|
A||--7-0-0-0---0-7-0-0-0---0-7-0-0-0---0-7-0-0---------|
E||--------------------------------------------7-5-3---|

G||----------------------------------------------------|
D||----------------------------------------------------|
A||----------------------------------------------------|
E||--3-0-0-0-0---3-0-0-0-0---3-0-0-0-0---3-0-0-0\10----|


Outro (5:36)
G||-------------------------------------------------|
D||-------------------------------------------------|
A||-------------------------------------------------|
E||--3-0-0-0-0---3-0-0-0-0---3-0-0-0-0---3-0-0-0-0--|x3

G||---------------------------------------------------|
D||---------------------------------------------------|
A||--------------------------------------5-7-7-5-7-7--|
E||--3-0-0-0-0---3-0-0-0-0---3-0-0-0-0----------------|

Enjoy!





Comments


Popular Muse tabs & chords
Easily 3 Bass Tabs
Hyper Music 3 Bass Tabs
Microcuts 1 Bass Tabs
Nishe Bass Tabs
Eternally Missed Chords
Hoodoo 1 Chords
Liquid State Chords
City Of Delusion Tabs
Fury (Solo) Tabs
Sunburn Intro Tabs


Song lyrics



↑ Back to top | Tablatures and chords are parodies/interpretations of the original songs. You may use it for private study, scholarship, research or language learning purposes only
© 2014 AZChords.com Contact us | Privacy policy | DMCA | Add/correct tabs | Request tabs | Top 50 tabs