» » »

Muse, I Belong To You Bass tabs (ver.1)

Artists:  A B C D E F G H I J K L M N O P Q R S T U V W X Y Z # 

I Belong To You Bass tabs (ver.1)

Muse Tabs
 Rating:
4/5 (4 votes)
I Belong To You lessons Tabs too difficult? Try these video lessons and learn fast
                Band: Muse
Bassist: Chris Wolstenholme
Tuning: Dropped D

[0:13]

G|----------|--------5-5-4-5-7~---|--------5-5-5-----|
D|----------|----5-5--------------|----5-5-----------|
A|----------|6-6------------------|6-6---------------|
D|0~--------|---------------------|------------------|

Verse:

G|-------------------|----------------------|
D|-------------10\---|13--13-10-13-10-------|
A|8--8-11-8-11-------|----------------10\---|
D|-------------------|----------------------| x3

G|----------|--------5-5-4-5-7~---|--------5-5-5-----|
D|----------|----5-5--------------|----5-5-----------|
A|----------|6-6------------------|6-6---------------|
D|0~--------|---------------------|------------------|

G|-------------------|----------------------|
D|-------------10\---|13--13-10-13-10-------|
A|8--8-11-8-11-------|----------------10\---|
D|-------------------|----------------------| x3

Chorus:

G|-----------22-33-00-------|---------33-33----------|
D|--------00----------00----|------11-------33-00----|
A|----00-----------------11-|---11----------------11-|
D|00------------------------|11----------------------| x2

G|----------|--------5-5-4-5-7~---|--------5-5-5-----|
D|----------|----5-5--------------|----5-5-----------|
A|----------|6-6------------------|6-6---------------|
D|0~--------|---------------------|------------------|

Verse:

G|-------------------|----------------------|
D|-------------10\---|13--13-10-13-10-------|
A|8--8-11-8-11-------|----------------10\---|
D|-------------------|----------------------| x3

Chorus: First two bars are same (x2) but ending is different:

G|----------|--------5-5-4-5-7----|--------5-5-5--5--5---5---|-----------|
D|----------|----5-5--------------|----5-5-------------------|-----------|
A|----------|6-6------------------|6-6-----------------------|-----------|
D|0~--------|---------------------|--------------------------|0~---------|

"Mon Coeur S'Ouvre A Ta Voix" part: 

G|---------------------------------------------------|
D|---------------------------------------------------| 
A|---------------------------------------------------|     
D|7----8--8--9---9-11-11---12~----9~----14~----7~----|

G|------------------------------|
D|------------------------------|
A|------------------------------|
D|0----0-4----4-8----8-7-7-7-7\-|

G|------------------------------|
D|------------------------------|
A|------------------------------|
D|0----2-4----4-9----9-8--------|

G|---------------------------------------------------|
D|---------------------------------------------------| 
A|---------------------------------------------------|     
D|7----8--8--9---9-11-11---12~----9~----14~----7~----|

And again....

G|--------5-5-5-----|
D|----5-5-----------|
A|6-6---------------|
D|------------------|

Verse: (clarinet solo) x3

Chorus: (play it like You did before Mon Coeur)

/  slide up
\  slide down
h  hammer-on
p  pull-off
~  let ring
            
Submit corrections

comments powered by Disqus
↑ Back to top | Muse Bass for I Belong To You. Lyrics for acoustic guitar and electric guitar. Tablatures and chords are parodies/interpretations of the original songs. You may use it for private study, scholarship, research or language learning purposes only