» » »

Muse, I Belong To You Tabs (ver.1)

Artists:  A B C D E F G H I J K L M N O P Q R S T U V W X Y Z # 

I Belong To You Tabs (ver.1)

Muse Tabs
 Rating:
4/5 (4 votes)
I Belong To You lessons Tabs too difficult? Try these video lessons and learn fast
1
                                               I belong to you  

Order:
  Intro         3 times
  Chorus_1      2 times
  Intro         3 times
  Chorus_1      2 times
  Intro         3 times
  Chorus_2      2 times
  Chorus_1      2 times
  Verse         3 times
  Chorus_2      2 times
  Chorus_1      2 times
  Solo          1 time
  Chorus_2      2 times
  Chorus_1      2 times


                          
Intro  
D#||--------------------------|--------------------------|
A#||--2--2--2--2--2--2--2--2--|--2--2--2--2--2--2--2--2--|
F#||--2--2--2--2--2--2--2--2--|--1--1--1--1--1--1--1--1--|
C#||--------------------4-----|--2-----------------------|
G#||--------------4-----------|--------4-----------------|
D#||--2-----5-----------------|--------------4-----0-----|


Chorus_1  
-------6--6--------------|--------------------------|
-------8--8--8--8--------|--------------5--5--------|
-------------8--8--8--8--|--------6--6--6--6--5--6--|
-------------------8--8--|--------6--6--------------|
--6----------------------|--7--7--------------------|
-------------------------|--------------------------|


Chorus_2
--6--6--6--6--6--6--6--6--|--------------------------|
--8--8--8--8--8--8--8--8--|--9--9--9--9--9--9--9--9--|
--8--8--8--8--8--8--8--8--|--8--8--8--8--8--8--8--8--|
--8--8--8--8--8--8--8--8--|--9--9--9--9--9--9--9--9--|
--6--6--6--6--6--6--6--6--|--6--6--6--6--6--6--6--6--|
--------------------------|--------------------------|

--7--7--7--7--7--7--7--7--|--7--7--7--7--7--7--7--7--|
--9--9--9--9--9--9--9--9--|--7--7--7--7--7--7--7--7--|
--9--9--9--9--9--9--9--9--|--8--8--8--8--8--8--8--8--|
--9--9--9--9--9--9--9--9--|--9--9--9--9--9--9--9--9--|
--7--7--7--7--7--7--7--7--|--9--9--9--9--9--9--9--9--|
--------------------------|--7--7--7--7--7--7--7--7--|


Verse
--2--2--2--2--2--2--2--2--|--4--4--4--4--4--4--4--4--|
--2--2--2--2--2--2--2--2--|--5--5--5--5--5--5--5--5--|
--2--2--2--2--2--2--2--2--|--6--6--6--6--6--6--6--6--|
--4--4--4--4--4--4--4--4--|--6--6--6--6--6--6--6--6--|
--4--4--4--4--4--4--4--4--|--4--4--4--4--4--4--4--4--|
--2--2--2--2--2--2--2--2--|--------------------------|


Solo
-----------------------|-------------------------|
-----------------------|-------------------------|
--6------6--8--9----8--|-----6-------5--6--------|
-----------------------|----------6-----------6--|
-----------------------|-------------------9-----|
-----------------------|-------------------------|

------------------------|-----------------------------|
------------------------|-----------------------------|
------------------------|-----------------------------|
--7---------7--9--7--6--|-----6h-7p-6-----------------|
------------------------|--------------7--------3--4--|
---------9--------------|-----------------9--4--------|
 
--------------------------|-----------------------|
--------------------------|-----------------------|
--------------------------|-----------------------|
--------------------------|-----------------------|
--------------------------|-----------7-----7--9--|
--2------2--4-5-4--2--3-4-|--0-----------9--------|

-------------------|---------------------|
-------------------|---------------------|
-------------------|---------------------|
--5----------------|--6--------6----8----|
-------------------|---------------------|
-------------------|---------------------|

----------------------|--------------------------|
----------------------|--------------------------|
-----------6-------7--|--8h-9p-8-----------------|
--9-------------------|-----------9--------------|
----------------------|--------------9--6--------|
----------------------|--------------------------|
            
Submit corrections

comments powered by Disqus
↑ Back to top | Muse Tabs for I Belong To You. Lyrics for acoustic guitar and electric guitar. 1 Tablatures and chords are parodies/interpretations of the original songs. You may use it for private study, scholarship, research or language learning purposes only