» » »

Muse, House Of The Rising Sun Tabs (ver.3)

Artists:  A B C D E F G H I J K L M N O P Q R S T U V W X Y Z # 

House Of The Rising Sun Tabs (ver.3)

Muse Tabs
 Rating:
4/5 (4 votes)
House Of The Rising Sun lessons Tabs too difficult? Try these video lessons and learn fast
                [Intro 1] Distortion. Mute. 
|-xx-xx-x--||-x---x---x--| |-xx-xx-x--||-x---x---x--| |-xx-xx-x--||-x---x---x--| x8 
|-xx-xx-x--||-x---x---x--| |-xx-xx-x--||-x---x---x--| |-xx-xx-x--||-x---x---x--| 

[Intro 2] 
Am C Dmay Dm Am E Am E 
e---------------2-----1---------------------|
B---1-----1-----3-----3----1--------1-------|
G---2-----0-----2-----2----2---1----2----1--| 
D---2-----2----------------2---2----2----2--|
A---------3--------------------2---------2--| 
E-------------------------------------------| 

[Verse:] 
Am C Dmay Dm 
There is a house in New Orleans 
Am C E 
They Call the rising sun 
Am C Dmay Dm 
and It's been the ruin of many a poor boy 
Am E Am 
And god, I know I´m one. 

[Verse 2:] 
Am C Dmay Dm 
Oh mother, tell your children, 
Am C E 
Not to do what I have done 
Am C Dmay Dm 
why you Spend your lives in sin and misery, 
Am E Am 
In the "House of the Rising Sun" 
Am C Dmay Dm 
Well, there is a house in New Orleans, 
Am C E 
They call the "Rising Sun", 
Am C E 
And it's been the ruin of many a poor boy, 
Am E Am 
And God, I know, I'm one. 

Order: [Intro1] [Intro2] [Verse1] [Intro2] [Verse1] [Intro2] [Intro1] [Verse1] [Intro1]
            
Submit corrections

comments powered by Disqus
↑ Back to top | Muse Tabs for House Of The Rising Sun. Lyrics for acoustic guitar and electric guitar. Tablatures and chords are parodies/interpretations of the original songs. You may use it for private study, scholarship, research or language learning purposes only