» » »

Muse, House Of The Rising Sun Bass tabs (ver.2)

Artists:  A B C D E F G H I J K L M N O P Q R S T U V W X Y Z # 

House Of The Rising Sun Bass tabs (ver.2)

Muse Tabs
 Rating:
4/5 (4 votes)
House Of The Rising Sun lessons Tabs too difficult? Try these video lessons and learn fast
1
                Band: Muse
Bassist: Chris Wolstenholme
Tuning: Standard

Intro [0:17]:

G|------------------------------------------------------|
D|------------------------------------------------------|
A|12(x6)--10(x6)--9(x6)--8(x6)--7(x12)--/12(x6)--7(x6)--|
E|------------------------------------------------------|

Verse:

G|------------------------------------------------|
D|------------------------------------------------|
A|----------------------7-5-5-5-5-5-7-8-8-8-8-8---|
E|5-5-5-5-5-7-8-8-8-8-8-------------------------3-|

G|------------------------------------------------|
D|------------------------------------------------|  
A|----------------------5-7-7-7-7-7-75757-7-7-7---|
E|5-5-5-5-5-7-8-8-8-8-8-------------------------3-|

G|------------------------------------------------------------------------|
D|------------------------------------------------------------------------|
A|----------------------7-5-5-5-5-5-7-8-8-8-8-8---------------------------|
E|5-5-5-5-5-7-8-8-8-8-8-------------------------3-5-5-5-5-5-5-0-0-0-0-0-0-|

Bridge:

G|------------------------------------------------------|
D|------------------------------------------------------|
A|12(x6)--10(x6)--9(x6)--8(x6)--7(x12)--/12(x6)--7(x6)--|
E|------------------------------------------------------|

Verse:

G|------------------------------------------------|
D|------------------------------------------------|
A|----------------------7-5-5-5-5-5-7-8-8-8-8-8---|
E|5-5-5-5-5-7-8-8-8-8-8-------------------------3-|

G|------------------------------------------------|
D|------------------------------------------5-----| 
A|----------------------5-7-7-7-7-7-75757-7--75---|
E|5-5-5-5-5-7-8-8-8-8-8------------------------887|

G|------------------------------------------------------------------------|
D|------------------------------------------------------------------------|
A|----------------------7-5-5-5-5-5-7-8-8-8-8-8---------------------------|
E|5-5-5-5-5-7-8-8-8-8-8-------------------------3-5-5-5-5-5-5-0-0-0-0-0-0-|

Play Bridge:

No bass 1:51 - 2:05

Verse:

G|------------------------------------------------|
D|------------------------------------------------|
A|----------------------7-5-5-5-5-5-7-8-8-8-8-8---|
E|5-5-5-5-5-7-8-8-8-8-8-------------------------3-|

G|------------------------------------------------|
D|------------------------------------------------| 
A|----------------------5-7-7-7-7-7-7-7-7-7-7-7\--|
E|5-5-5-5-5-7-8-8-8-8-8---------------------------|

G|------------------------------------------------------------------------|
D|------------------------------------------------------------------------|
A|----------------------7-5-5-5-5-5-7-8-8-8-8-8---------------------------|
E|5-5-5-5-5-7-8-8-8-8-8-------------------------3-5-5-5-5-5-5-0-0-0-0-0-0-|

/  slide up
\  slide down
h  hammer-on
p  pull-off
~  let ring
            
Submit corrections

comments powered by Disqus
↑ Back to top | Muse Bass for House Of The Rising Sun. Lyrics for acoustic guitar and electric guitar. 1 Tablatures and chords are parodies/interpretations of the original songs. You may use it for private study, scholarship, research or language learning purposes only