» » »

Host Bass tabs (ver.2)

Artists:  A B C D E F G H I J K L M N O P Q R S T U V W X Y Z # 

Host Bass tabs (ver.2)

Muse
Rating:
0/5 (0 votes)
Tabs too difficult? Try these video lessons and learn fast.
                (2)
(1minute 11 seconds) (riff)
G	| --------------------------------------------------------------------
D	| --------------------------------------------------------------------
A	| ---0--22--33--22--00------0-----------------------------------------   
E	| ------------------------------00------------------------------------
  x2


(pre-chorus)
G	| --------------------------------------------------------------------
D	| --------------------------------------------------------------------
A	| ---0--2--3-------55-0---0---0----0—2—3-------55-0-------------------
E	| --------------0-----------------------------------0-----------------

(heavy chorus)
G	| --------------------------------------------------------------------
D	| --------------------------------------------------------------------
A	| ---3333-------------------------------------------------------------     
E	| ---------000011113333-----------------------------------------------
  x8

(quiet bit)
G	| --------------------------------------------------------------------
D	| --------------------------------------------------------------------
A	| ---0----------------------------2(slidedown)7-----------------------
E	| --------------------------------------------------------------------

G	| --------------------------------------------------------------------
D	| ---7-----9-----10-----12-----14--------7--7-------------------------
A	| --------------------------------------7-----------------------------    
E	| --------------------------------------------------------------------

(last mad bit)
G	| --------------------------------------------------------------------
D	| --------------------------------------------------------------------
A	| -00002222333322220000---00-22-33-55---000022223333--5-7----0--------    
E	| ----------------------------------0000---------------------------0—


You will need to listen a few times to get the rhythm right! Good luck and send me any corrections!
            
Tabs too difficult? Try these video lessons and learn fast.


comments powered by Disqus
↑ Back to top | Tablatures and chords are parodies/interpretations of the original songs. You may use it for private study, scholarship, research or language learning purposes only