» » »

Host Bass tabs (ver.1)

Artists:  A B C D E F G H I J K L M N O P Q R S T U V W X Y Z # 

Host Bass tabs (ver.1)

Muse
Rating:
0/5 (0 votes)

Hard to play? Try these video lessons and learn fast.
                (1)
Verse
G------------------|
D------------------|
A-0---3----0----0--|
E---0----0---0-----|

Chorus
G----------------|
D------0--2--2---|
A--3-------------|
E----0-----------|

Bridge
G-----------------------------------|
D-----------------------------------|
A---3-3-3-3-------------------------|          x8
E-----------0-0-0-0-1-1-1-1-3-3-3-3-|

Repeat verse then : 
Outro
G------------------------------------------------------------------------------------|
D------------------------------------------------------------------------------------|
A------------------------------------------------------------------------------------|
E--5-5-5-5-0-0-0-0-8-8-8-8-0-0-0-0-5-5-5-5-0-0-0-0-5-5-7-7-8-8-10-10-12-12-0-0-4h5---|
            
Hard to play? Try these video lessons and learn fast. | Correct




comments powered by Disqus
↑ Back to top | Tablatures and chords are parodies/interpretations of the original songs. You may use it for private study, scholarship, research or language learning purposes only