» » »

Muse, Hoodoo Tabs (ver.1)

Artists:  A B C D E F G H I J K L M N O P Q R S T U V W X Y Z # 

Hoodoo Tabs (ver.1)

Muse Tabs
Rating:
0/5 (0 votes)
Hoodoo lessons Tabs too difficult? Try these video lessons and learn fast
                -------------------------------------------------------------------------------
-------------------------------------------------------------------------------

Tuning: standard

e|---------8-|--------------------|------|--------------------------|
B|--------8--|-----------------8--|---4~-|----------4----3~---------|
G|-------8---|---------------10---|---3~-|----------3----4~---------|
D|-----10----|------------10------|---5~-|----------5----5~---------|
A|---10------|--8--10--11---------|------|--------------------------|
E|--8--------|--------------------|------|--6-4-3-------------------|
   ‘come into my life…’


e|---------8-|--------------------|------|--------------------------|
B|--------8--|-----------------8--|---4~-|----------4----3~---------|
G|-------8---|---------------10---|---3~-|----------3----4~---------|
D|-----10----|------------10------|---5~-|----------5----5~---------|
A|---10------|--8--10--11---------|------|--------------------------|
E|--8--------|--------------------|------|--6-4-3-------------------|
   ‘Draw another picture…’


      Fm
e|-------1-----|-----------------|-------------|---------------------
B|------1------|------4----------|----3--------|-----4---------------
G|----1----(X2)|-----3--3---(X2)-|-----4---(X2)|----3--3----(X2)-----
D|-----3-------|----5----5-------|---3--3------|---5----5------------
A|---3---------|---6-------------|--5----------|--6------------------
E|--1----------|-----------------|-3-----------|---------------------
   ‘You should never be afraid…’

       G       G      Ab     Ab     Cm       G      Cm   
e|---------------|--------------|----3---|--------|----3----------|
B|------3-----3--|-----4-----4--|----4---|---3----|----4----------|
G|-----4-----4---|----5-----5---|---5----|---4----|----5----------|
D|----5-----5----|---6-----6----|--5-----|---5----|----5----------|
A|---5-----5-----|--6-----6-----|-3------|---5----|----3----------|
E|--3-----3------|-4-----4------|--------|---3----|---------------|
     ‘Why   …       Why  …    is this a crisis,   in your eyes’     (cue piano)
 
 


| /  slide up
| \  slide down
| h  hammer-on
| p  pull-off
| ~  vibrato
| +  harmonic
| x  Mute note
===============================================================================
            

comments powered by Disqus
↑ Back to top | Muse Tabs for Hoodoo. Lyrics for acoustic guitar and electric guitar. Tablatures and chords are parodies/interpretations of the original songs. You may use it for private study, scholarship, research or language learning purposes only