» » »

Hoodoo Bass tabs (ver.1)

Artists:  A B C D E F G H I J K L M N O P Q R S T U V W X Y Z # 

Hoodoo Bass tabs (ver.1)

Muse
Rating:
0/5 (0 votes)

Hard to play? Try these video lessons and learn fast.
                Hoodoo by Muse
Bass played by Chris Wolstenholme and Morgan Nicholls live
Taken from the album Black Holes And Revelations

The bass comes in at 1:13
G|--------------------------------------------------------------|
D|-3---3---1---1---0---0---1---1--------------------------------|
A|--------------------------------------------------------------|
E|------------------------------------3---3---4---4---3------3--|

2:03
G|--------------------------------------------------------|
D|--------------------------------------------------------|
A|--------------------------------------------------------|
E|-8-8----8-8----8-8----8-8----8-8----8-8----8-8----8-8---|

G|--------------------------------------------------------|
D|--------------------------------------------------------|
A|--------------------------------------------------------|
E|-7-7----6-6----5-5----5-5----4-4----3-3----2-2----2-2---|

G|------------------------------------------------------------------|
D|--------------------------------------------------1-1----0-0------|
A|-5-5----3-3----1-1----0-0----1-1----0-0-------------------------3-|
E|-------------------------------------------1-1--------------------|

There you go, I checked it and rechecked it in every possible way, so it shouldn't have 
mistakes. Feel free to comment and have fun.
Cheers
            
Hard to play? Try these video lessons and learn fast. | Correct




comments powered by Disqus
↑ Back to top | Tablatures and chords are parodies/interpretations of the original songs. You may use it for private study, scholarship, research or language learning purposes only