» » »

Guiding Light Bass tabs (ver.1)

Artists:  A B C D E F G H I J K L M N O P Q R S T U V W X Y Z # 

Guiding Light Bass tabs (ver.1)

Muse
Rating:
0/5 (0 votes)

Tabs too difficult? Try these video lessons and learn fast.
                Hope this is right.

EADG Tuning

1st part comes in at 0.37

G------5------------------------------7--------------------------|
D----------------------7------------------------------5----------|
A--3-3---3--3-3-3 ----------------5-5---5---5-5-5----------------|
E------------------5-5---5--5-5-5-----------------3-3---3--3-3-3-|

G---------------------5------------------------------5----------|
D------7------------------------------5-------------------------|
A-----------------3-3---3--3---------------------3-3---3--3-3-3-|
E--5-5---5--5-3-3------------1-1--3-3---3--3-3-3----------------|

2nd part

G-----------------------------------------------------5----------|
D------3---------------7---------------5-------------------------|
A-------------------------------------------------3-3---3--3-3-3-|
E--1-1---1--1-3-3--5-5---5--5-1-1--3-3---3--3-3-3----------------|

G---------------------------------------7--------------5----------|
D------3---------------7------------------------------------------|
A----------------------------------5-5---5--5-5-5--3-3---3--3-3-3-|
E--1-1---1--1-3-3--5-5---5--5-1-1---------------------------------|

SOLO

part 1 and 2 again
            
Tabs too difficult? Try these video lessons and learn fast.




comments powered by Disqus
↑ Back to top | Tablatures and chords are parodies/interpretations of the original songs. You may use it for private study, scholarship, research or language learning purposes only