» » »

Muse, Guiding Light Bass tabs (ver.2)

Artists:  A B C D E F G H I J K L M N O P Q R S T U V W X Y Z # 

Guiding Light Bass tabs (ver.2)

Muse Tabs
 Rating:
4/5 (4 votes)
Guiding Light lessons Tabs too difficult? Try these video lessons and learn fast
1
                Verse
G|-5-------------------------7--------------------|
D|--------------7-------------------------5-------|
A|3-33-3-33-----------------5-55-5-55-------------|
E|-------------5-55-5-55-----------------3-33-3-33|

G|--------------5------------5-------|
D|-7---------------------------------|
A|-------------3-33-3-------3-33-3---|
E|5-55-5-33-----------11-----------33|

G|-5-------|
D|---------| (this one part is played four times)
A|3-33-3-33|
E|---------|

Chorus
G|---------------------------5------------5-------|
D|-3------------7---------------------------------|
A|--------------------------3-33-3-33----3-33-3-33|
E|1-11-1-33----5-55-5-11--------------------------|

G|---------------------------7--------------------|
D|-3------------7-------------------------5-------|
A|--------------------------5-55-5-55-------------|
E|1-11-1-33----5-55-5-11-----------------3-33-3-33|

G|-5-------|
D|---------| (this one part is played eight times)
A|3-33-3-33|
E|---------|

Solo
G|-5-------------------------7--------------------|
D|--------------7-------------------------5-------|
A|3-33-3-33-----------------5-55-5-55-------------|
E|-------------5-55-5-55-----------------3-33-3-33|

G|--------------5------------5-------|
D|-7---------------------------------|
A|-------------3-33-3-------3-33-3---|
E|5-55-5-33-----------11-----------33|

G|-5-------|
D|---------| (this one part is played two times)
A|3-33-3-33|
E|---------|

Chorus
G|---------------------------5------------5-------|
D|-3------------7---------------------------------|
A|--------------------------3-33-3-33----3-33-3-33|
E|1-11-1-33----5-55-5-11--------------------------|

G|---------------------------7--------------------|
D|-3------------7-------------------------5-------|
A|--------------------------5-55-5-55-------------|
E|1-11-1-33----5-55-5-11-----------------3-33-3-33|

G|-5-------|
D|---------| (this one part is played twenty times)
A|3-33-3-33|
E|---------|
            
Submit corrections

comments powered by Disqus
↑ Back to top | Muse Bass for Guiding Light. Lyrics for acoustic guitar and electric guitar. 1 Tablatures and chords are parodies/interpretations of the original songs. You may use it for private study, scholarship, research or language learning purposes only