» » »

Muse, Fillip Bass tabs (ver.1)

Artists:  A B C D E F G H I J K L M N O P Q R S T U V W X Y Z # 

Fillip Bass tabs (ver.1)

Muse Tabs
Rating:
0/5 (0 votes)
Fillip lessons Tabs too difficult? Try these video lessons and learn fast
                INTRO

  G:--------------------------------------------------------------------
  D:-------------------------------------------------------------------- 
  A:--------------------------------------------------------------------
  E:--3-3-3---------3-3-3---------3-3-3---------3-3-3---/12-------------
                                                                                            
                                                    
                      VERSE                           
  G:----------7----------9----------9-7---------------------------------
  D:--7-9-7-9----7-9-7-9----7-9-7-9-----9-9-7-7-9-----------------------   
  A:--------------------------------------------------------------------   
  E:--------------------------------------------------------------------  
                                                              
                      CHORUS                                  
  G:--------------------------------------------------------------------
  D:--------------------------------------------------------------------
  A:--------------------------------------33333333-55555555-7777-5-77777
  E:--33333333-22222222-00000000-55557777-------------------------------


  G:---------------------------------------------------------------------
  D:---------------------------------------------------------------------
  A:777777---------------------------------------------------------------
  E:---------------------------------------------------------------------
                      
                      2nd CHORUS    
  G:--------------------------------------------------------------------
  D:--------------------------------------------------------------------
  A:--------------------------------------33333333-55555555-7777-5-77777
  E:--33333333-22222222-00000000-55557777-------------------------------

  G:---------------------------------------------------------------------
  D:---------------------------------------------------------------------
  A:777777-55555555-3333-3-3-3-3-----------------------------------------
  E:---------------------------------------------------------------------

                        BRIDGE
  G:---------------------------------------------------------------------
  D:---------------------------------------------------------------------
  A:---------------------------------------------------------------------
  E:-0---3-3-0-3--2-3-3-2--3-3-0-3--2-3-3-2--3-3-0-3--2-3-3-5--3-3-0-3--2
  
  G:---------------------------------------------------------------------
  D:---------------------------------------------------------------------
  A:---------------------------------------------------------------------
  E:3-3-2--3-3-0-3--2-3-3-2--3-3-0-3--2-3-3-2--3-3-0-3--2-3-3-0---------- 

                        END OF BRIDGE
  G:---------------------------------------------------------------------
  D:---------------------------------------------------------------------
  A:--------------------------------------------5-55---------7-79--------
  E:-0--00-0--00-0---0000--0-00-0-0-0-0-5-7-5-7------5-7-5-7------5-7-5-7

  G:---------------------------------------------------------------------
  D:---------------------------------------------------------------------
  A:-7-5-----------------------5---------7----------5-7------------------
  E:-----7-7-5-5-7-77--5-7-5-7---5-7-5-7----5-7-5-7-----7-7-/1515--------

                        THIRD CHORUS
  G:----------------------------------------------------------------------
  D:----------------------------------------------------------------------
  A:--------------------------------------33333333-55555555-5-755h7-5h75h7
  E:--33333333-22222222-00000000-55557777---------------------------------

  G:----------------------------------------------------------------------
  D:----------------------------------------------------------------------
  A:-57-55h755h755h77-7h5-------------------------------------------------
  E:--------------------h7------------------------------------------------
 
                        LAST CHORUS
  G:----------------------------------------------------------------------
  D:----------------------------------------------------------------------
  A:-------------------------------------3333333-5555555-7777-5-77777777-5
  E:--33333333-22222222-0000000-55557777----------------------------------                

  G:----------------------------------------------------------------------
  D:----------------------------------------------------------------------
  A:-7-----5-7777777-5-7-5-3-2-0------------------------------------------
  E:----------------------------------------------------------------------
            

comments powered by Disqus
↑ Back to top | Muse Bass for Fillip. Lyrics for acoustic guitar and electric guitar. Tablatures and chords are parodies/interpretations of the original songs. You may use it for private study, scholarship, research or language learning purposes only