» » »

Fillip Bass tabs (ver.3)

Artists:  A B C D E F G H I J K L M N O P Q R S T U V W X Y Z # 

Fillip Bass tabs (ver.3)

Muse
Rating:
0/5 (0 votes)

Hard to play? Try these video lessons and learn fast.
                This is an edit of dannys 2004(basschick88s on mxtabs) version to something that sounds 
accurate to my own ears.
It's not perfect but it sounds a bit better to me.


Intro

G:----------------------------|
D:----------------------------|
A:----------------------------|
E:--3-3-3-----3-3-3---3-3-3---|

Verse (2x)

G:------------------------------------------------------|
D:------------------------------------------------------|
A:--0-2-0-2-5--0-2-0-2-7--0-2-0-2-7-5-3-3-2-0-2---------|
E:------------------------------------------------------|

Chorus

G:---------------------------------------------------------------------|
D:-------------------------------------------------44444444------------|
A:-------------------------------333333333355555555--------4-----------|
E:--33333332222222000000004444444---------------------------22222222---|

G:------------------------------|
D:------------------------------|
A:------------------------------|
E:--3-3-3-----3-3-3---3-3-3-----|

Verse

Chorus

G:---------------------------------------------------------------------|
D:-------------------------------------------------44444444------------|
A:-------------------------------333333333355555555--------4-----------|
E:--33333332222222000000004444444---------------------------22222222---|

G:---------------------------------------------------------------------|
D:---------------------------------------------------------------------|
A:--44444444-----------------------------------------------------------|
E:-----------22222222--3-----------------------------------------------|

Bridge

G:-------------------------------------------------------------------------|
D:--55------5---5----44-----4---4--5--5-5------5---5----44-----4---4-------|
A:-----5------5---------4-----4-----------5------5---------4-----4---------|
E:-------3--------2-------2------------------3--------2-----2 -------------|

G:---------------------------------------------------------------------|
D:---3-3------2-2----3---3-3------2-2----------------------------------|
A:-------3--------2----------3--------2--------------------------------|
E:-1-------0-------------------0---------0-----------------------------|

G:---------------------------------------------------------------------|
D:---------------------------------------------------------------------|
A:-----------------------555555-------777777---------5-----------------|
E:--000000000----7-7-5-7-------7-7-5-7-------7-7-5-7--8-8-8-7-5-7------|

G:--------------------------------------------------------|
D:--------------------------------------------------------|
A:----------555555-------777777---------5-----------------|
E:--7-7-5-7-------7-7-5-7-------7-7-5-7--8-8-8-7-5-7------|

Chorus


G:-------------------------------------------------------------|
D:-------------------------------------------------------------|
A:-------------------------------333333333355555555777777777---|
E:--33333332222222000000004444444------------------------------|

G:---------------------------------------------------------------------|
D:-------------------------------------------------44444444------------|
A:-------------------------------333333333355555555--------4-----------|
E:--33333332222222000000004444444---------------------------22222222---|

G:-----------------------------|
D:--4-------4------------------|
A:----4-------4----------------|
E:------2-------2-------2~-----|
            
Hard to play? Try these video lessons and learn fast. | Correct




comments powered by Disqus
↑ Back to top | Tablatures and chords are parodies/interpretations of the original songs. You may use it for private study, scholarship, research or language learning purposes only