» » »

Muse, Feeling Good Bass tabs (ver.8)

Artists:  A B C D E F G H I J K L M N O P Q R S T U V W X Y Z # 

Feeling Good Bass tabs (ver.8)

Muse Tabs
Rating:
0/5 (0 votes)
Feeling Good lessons Tabs too difficult? Try these video lessons and learn fast
                (piano intro)

I “And I’m feeling good…”
G-------------------------------------|
D-------------------------------------|
A--10--10-8--8-6--6-5--5-8-5----------| x3
E-------------------------------------|

II “Blossom in the trees…”
G-------------------------------------------------------------------------|
D-------------------------------------------------------------------------|
A--10--10-8--8-7--7-6--6-5--5-3--3-1--1-0--3-0-0-3-0-4-5------------------|
E--------------------------------------------------------------------3----|

III “Dragonfly out in the sun…”
G------------------------------------------------------------------------------------|
D------------------------------------------------------------------------------------|
A--10--10-8--8-6--6-5--5-9-12-10--10-8--8-6--6-5--5-10-12-13--13-10--10-6--6-3--3-1--|
E------------------------------------------------------------------------------------|

G----------------------------|
D----------------------------|
A--1-------------------------|
E----3-6-10-11--11-10--------|

IV “For me…”
G------------------------------------------|
D------------------------------------------|
A--10--10-8--8-6--6-5--8-5-8--10-----------|  x3
E------------------------------------------|

V “Yeah, freedom is mine…”
G---------------------------------------------------------------------------|
D---------------------------------------------------------------------------|
A--10--10-8--8-7--7-6--6-5--5-3--3-1--1-0--0-3-0-0-3-0-4-5------------------|
E----------------------------------------------------------------------3----|

VI “La la la!...” (or whatever)
G|------------------------------------------------------------------------------------------|
D|------------------------------------------------------------------------------------------|
A|--33--1-0--------------------0--------------------------------------555555555555555555-8--|
E|--------------------------------3------------------------3-2------------------------------|


“Oooh…” (play I & II again)


Cheers, Becky
            

comments powered by Disqus
↑ Back to top | Muse Bass for Feeling Good. Lyrics for acoustic guitar and electric guitar. Tablatures and chords are parodies/interpretations of the original songs. You may use it for private study, scholarship, research or language learning purposes only