» » »

Muse, Feeling Good Tabs (ver.3)

Artists:  A B C D E F G H I J K L M N O P Q R S T U V W X Y Z # 

Feeling Good Tabs (ver.3)

Muse Tabs
 Rating:
4/5 (4 votes)
Feeling Good lessons Tabs too difficult? Try these video lessons and learn fast
1
                ---------------------------------------------------------------------------
                     MUSE - FEELING GOOD - GUITAR TAB
---------------------------------------------------------------------------

This tab is 100% by ear and took me ages :P

I have done a pretty good job though I think, its a very simple song,
Enjoy!!! and please rate :D

The whole tab is the piano part of the song tabbed out for guitar...

Intro for guitar until matt starts singing...

|-----------------------------------------------------------------|
|-----------------------------------------------------------------|
|--15-15-15-15-15-15-15-15-15-15-15-15-15-15-15-15-15-15-15-15----|
|--17-17-17-17-17-17-17-17-17-17-17-17-17-17-17-17-17-17-17-17----|
|-----------------------------------------------------------------|
|-----------------------------------------------------------------|

Birds flying high...

|--------------------------------------------------------------------------|
|--------------------------------------------------------------------------|
|--15-15-15-15-15-15-15-15-15-15-15-15-15-15-15-15-15-15-15-15-15-15-15----|
|--17-17-17-17-17-17-17-17-17-17-17-17-17-17-17-17-17-17-17-17-17-17-17----|
|--17-17-17-17-17-17-17-17-17-17-17-17-17-17-17-17-17-17-17-17-17-17-17----|
|--------------------------------------------------------------------------|

And i'm Feeling Good!

|----------------------------------------------------------|
|----------------------------------------------------------|
|--12------12-10------10-8-------8-7------7-10-7-10-12-----|
|--12------12-10------10-8-------8-7------7-10-7-10-12-----|
|--10------10-8-------8--6-------6-5------5-8--5-8--10-----|
|----------------------------------------------------------|


Blossom In The Tree's...

|----------------------------------------------------------------------------|
|----------------------------------------------------------------------------|
|--12----12-10----10-9----9-8-----8-7----7-5----5-3----3-2-----5-5-5-5-5-6-7-|
|--12----12-10----10-9----9-8-----8-7----7-5----5-3----3-2-----5-5-5-5-5-6-7-|
|--10----10-8-----8--7----7-6-----6-5----5-3----3-1----1-0-----3-3-3-3-3-4-5-|
|----------------------------------------------------------------------------|

And i'm feeling good...

|---------------------------------------------------------------------------|
|-------------------------------------11-13-14-13-14-13-15-13--6/8--8-6-8~--|
|--------------12-----------------------------------------------------------|
|--------------12-----------------------------------------------------------|
|--------------10-----------------------------------------------------------|
|---------------------------------------------------------------------------|

For Me...........

|----------------------------------------------------------||
|----------------------------------------------------------||
|--12------12-10------10-8-------8-7------7-10-7-10-12-----||
|--12------12-10------10-8-------8-7------7-10-7-10-12-----||
|--10------10-8-------8--6-------6-5------5-8--5-8--10-----||
|----------------------------------------------------------||

Yeah Freedom.....

|------------------------------------------------------------------------|
|------------------------------------------------------------------------|
|--12----12-10----10-9----9-8-----8-7----7-5----5-3----3-2-----5-5-5-5-5-|
|--12----12-10----10-9----9-8-----8-7----7-5----5-3----3-2-----5-5-5-5-5-|
|--10----10-8-----8--7----7-6-----6-5----5-3----3-1----1-0-----3-3-3-3-3-|
|------------------------------------------------------------------------|

But it Burns......                oooooooOOOOOOOOHHHHHHHHHHHHHHHH...

|-------------------------------------------------------------------------|
|-------------------------------------------------------------------------|
|--5-4-3-2-----------------------7-7-7-7-7-7-7-7-7--7-7-7-7-7-7-7-7-7-7---|
|--5-4-3-2--------5-4-3----------7-7-7-7-7-7-7-7-7--7-7-7-7-7-7-7-7-7-7---|
|--3-2-1-0--------5-4-3----------5-5-5-5-5-5-5-5-5--5-5-5-5-5-5-5-5-5-5---|
|-----------------3-2-1---------------------------------------------------|

The song then finishes with just bass and drums...

Thank you, and please rate!!! :D
            
Submit corrections

comments powered by Disqus
↑ Back to top | Muse Tabs for Feeling Good. Lyrics for acoustic guitar and electric guitar. 1 Tablatures and chords are parodies/interpretations of the original songs. You may use it for private study, scholarship, research or language learning purposes only