» » »

Feeling Good Chords (ver.1)

Artists:  A B C D E F G H I J K L M N O P Q R S T U V W X Y Z # 

Feeling Good Chords (ver.1)

Muse
Rating:
0/5 (0 votes)

Hard to play? Try these video lessons and learn fast.
                Originally recorded by Nina Simone.

MUSE
FEELING GOOD

Drop D Tuning

Intro:

|---------------------------------|
|---------------------------------|
|---------------------------------|
|---------------------------------|
|---------------------------------|
|--5---5-3---3-1---1---0-0-3-0-3--|

Heavy Part:

|---------------------------------|
|---------------------------------|
|---------------------------------|
|--5---5-3---3-1---1---0-0-3-0-3--|
|--5---5-3---3-1---1---0-0-3-0-3--|
|--5---5-3---3-1---1---0-0-3-0-3--|




Birds flying high, you know how I feel
Sun inthe sky you know how I feel
Breeze drifting on by you know how i feel
Its a new dawn, its a new day its a new life for me and i'm feeling good

Fish in the sea, you know how I feel
River running free, you know how I feel
Blossom on the tree, you know how I feel
Its a new dawn, its a new day, its a new life for me and I'm feeling good.

Dragonfly out in the sun, you know what I mean, don't u know
Butterflys all having fun you know what I mean
Sleep in peace when the day is done, thats what I mean
And this old world is a new world and a bold world for me, and I'm feeling good.



Stars when u shine, you know how i feel
Scent of the pine you know how i feel
Ohh freedom is mine and i know how i feel
Its a new dawn its a new day its a new life for me

and i'm feeling gooooooooddddddd.
            
Hard to play? Try these video lessons and learn fast. | Correct




comments powered by Disqus
↑ Back to top | Tablatures and chords are parodies/interpretations of the original songs. You may use it for private study, scholarship, research or language learning purposes only