>
 >
Exogenesis Symphony Part 1 Overture

Exogenesis Symphony Part 1 Overture Guitar Tabs

Muse - Exogenesis Symphony Part 1 Overture chords, tabs, tablatures, lyrics

Guitar lessons | Add/correct | Request | Top 50 tabs Artists:  A B C D E F G H I J K L M N O P Q R S T U V W X Y Z 0-9

Exogenesis Symphony Part 1 Overture Guitar Tabs – Muse

CD, Sheet music, Poster

Do you like Exogenesis Symphony Part 1 Overture? Share with your friends now
Bass TabsChordsTabsTabs v2Tabs v3Ukulele
dropped D tuning, this is my own work from wat i have gathered from muses live
performance of exogenesis 1 overture

intro; tremelo picking, listen to song for timing,
e]---------11--12--13--14--12---5-9-5---16--12---5-9-5---14--12---5-9-5-|
B]----------------------------------------------------------------------|
G]----------------------------------------------------------------------|
D]----------------------------------------------------------------------|
A]----------------------------------------------------------------------|
D]----------------------------------------------------------------------|

e]----16--12---5-9-5---13--14---6-9-6---17--13---5-9-5---13--14---6-9-6---|
B]------------------------------------------------------------------------|
G]------------------------------------------------------------------------|
D]------------------------------------------------------------------------|
A]------------------------------------------------------------------------|
D]------------------------------------------------------------------------|

e]----17--13---5-9-5---13--14---5-8-5---12~~~-5-8-5---13~~~-5-8-5---13-12~~-|
B]--------------------------------------------------------------------------|
G]--------------------------------------------------------------------------|
D]--------------------------------------------------------------------------|
A]--------------------------------------------------------------------------|
D]--------------------------------------------------------------------------|
the arpeggio strings come in , listen for the high strings, thats wat matt plays live...
                              aping...               trapped..          I..
e]----17~~~~~--15~~~-18~~~21~~~22~~~----21~~-18~~17~~20~~~~~~~~--18~-17~15~~-|
B]---------------------------------------------------------------------------|
G]---------------------------------------------------------------------------|
D]---------------------------------------------------------------------------|
A]---------------------------------------------------------------------------|
D]---------------------------------------------------------------------------|
     cant escape..    who are we...              [solo]
e]--15~~~15~~~~~-------17~~-----15~~~---18~--21~~----------------------------|
B]---------------------------------------------------------------------------|
G]---------------------------------------------------------------------------|
D]----------------------------------------------------------------7v---------|
A]---------------------------------------------------------------------------|
D]-------------------------------------------------0~---3~~---6~7~-----------|
                                                        I cant.....forgive..
e]--------------------------------------------------------------------------|
B]--------------------------------------------------------------------------|
G]-----------------------------------------------------//17v~~~~~~----------|
D]---7v-/8v--\5v-/12v~\11v~~\8-8\7v-----------------------------------------|
A]--------------------------------------------------------------------------|
D]---------------------------------------0--2-3-6--7------------------------|
   you.......I.....cant.....forgive..
e]------------------------------------|
B]------------------------------------|
G]-15v-----14-14b~-14v~~~~~~~~~~~~~~~-|
D]------------------------------------|
A]------------------------------------|
D]------------------------------------|
    why.....why.............why......
e]------------------------------------|
B]------------------------------------|
G]------------------------------------|
D]---------------------------------0~-|
A]0~~~~~---------------------------0~-|
D]--------------8~~~~--------11~~~12~-|

legend;

v=tremelo pick
~=vibrato/let ring
b=bend up slightly untill noticable
/=slide up
\=slide down

  thanks, jorge





Comments


Popular Muse tabs & chords
Hyper Music 1 Bass Tabs
I Belong To You Bass Tabs
Improv Bass Tabs
In Your World 4 Bass Tabs
Montpellier Jam Bass Tabs
Please Let Me Get What I Want Bass Tabs
Ashamed Tabs
Blackout 3 Tabs
Dead Star 2 Tabs
Exogenesis Symphony Part 2 Cross-pollination Ukulele


Song lyrics



↑ Back to top | Tablatures and chords are parodies/interpretations of the original songs. You may use it for private study, scholarship, research or language learning purposes only
© 2014 AZChords.com Contact us | Privacy policy | DMCA | Add/correct tabs | Request tabs | Top 50 tabs