» » »

Muse, Exogenesis Symphony Part 1 Overture Bass tabs (ver.1)

Artists:  A B C D E F G H I J K L M N O P Q R S T U V W X Y Z # 

Exogenesis Symphony Part 1 Overture Bass tabs (ver.1)

Muse Tabs
 Rating:
4/5 (4 votes)
Exogenesis Symphony Part 1 Overture lessons Tabs too difficult? Try these video lessons and learn fast
1
                Band: Muse
Bassist: Chris Wolstenholme
Tuning: Standard

No bass till 0:30. This part is probably on upright bass.

G|---------------------------------------------------------|
D|---------------------------------------------------------|
A|---------4~--3~----------4~--3~--------------------------|
E|5~--2~-----------5~--2~----------1~------5~----1~--------|

Here's electric bass.

G|------------------------|                                         
D|------------------------|                                         
A|0(x48)--1(x24)--4(x24)--|                                         
E|------------------------|                                      
                                                                
G|----------------------------------------------------------------| |
D|----------------------------------------------------------------| |
A|5(x24)--0(x24)----------5(x24)--3(x24)----------3(x24)----------| |
E|----------------3(x24)------------------3(x24)----------3(x24)--| |
                                                                    | x2
G|------------------------|                                         |
D|------------------------|                                         |
A|0(x48)--1(x24)--4(x24)--|                                         |
E|------------------------|                                         |
                                                   
G|------------|                                         
D|------------|                                        
A|5~----------|                                         
E|------------|


/  slide up
\  slide down
h  hammer-on
p  pull-off
~  let ring
            
Submit corrections

comments powered by Disqus
↑ Back to top | Muse Bass for Exogenesis Symphony Part 1 Overture. Lyrics for acoustic guitar and electric guitar. 1 Tablatures and chords are parodies/interpretations of the original songs. You may use it for private study, scholarship, research or language learning purposes only