» » »

Muse, Easily Tabs (ver.2)

Artists:  A B C D E F G H I J K L M N O P Q R S T U V W X Y Z # 

Easily Tabs (ver.2)

Muse Tabs
 Rating:
4/5 (4 votes)
Easily lessons Tabs too difficult? Try these video lessons and learn fast
                
Tuning:EADGBe

Easily is the B-side to the Starlight Single.

Tuning: Standard

There is no intro for guitar. Guitar enters at the chorus and the solo. You can try to 
something in the intro as well as in the end of the solo.

CHORUS

e|-x-x-----------------------------------------------|
B|-x-x-----------------------------------------------|
G|-x-x-----------------------------------------------|
D|-x-x--7------7-----5--------5-----5----------------|
A|-x-x-----------------------------------------------|
E|-x-x----5-5------5----7-7------7----3-3-0-3-0-3----|


e|---------------------------------------------------|
B|---------------------------------------------------|
G|---------------------------------------------------|
D|--5p0h3-0-0-3p0h2-----2p0h2------------------------|
A|------------------0-0------------------------------|
E|-----------------------------0-0-----0-0-----------|

The chorus is repeated twice. It is then repeated four times after the solo.
The solo has two parts.

SOLO PART A

e|----------------------------------------|
B|------3----3b5b3------------------------|
G|-2--5------------5---2-5-4---5b7b5-4----|
D|---------5-----------------2------------|
A|----------------------------------------|
E|----------------------------------------|


e|----------------------------------------|
B|------------6b8b6-5--3-3---3b5-3b5------|
G|--2--4-5-----------------5--------------|
D|---------2------------------------------|
A|----------------------------------------|
E|----------------------------------------|

SOLO PART B

e|----------------------------------------|
B|--/-17----------17--15----------15------|
G|-------17----17--------16----16----16---|
D|----------19--------------17------------|
A|----------------------------------------|
E|----------------------------------------|

e|-----------------15/17-------17-15------|
B|--18----------18-------18----------17---|
G|-----17----17-------------19----------17|
D|--------19------------------------------|
A|----------------------------------------|
E|----------------------------------------|

e|--20-------19-20-19---------------------|
B|-----22-------------21-18-17---15---13--|
G|--------22------------------------------|
D|----------------------------------------|
A|----------------------------------------|
E|----------------------------------------|


| /  slide up
| \  slide down
| h  hammer-on
| p  pull-off
| ~  vibrato
| +  harmonic
| x  Mute note

The chorus starts again. You can improvise by copying Matt´s voice.

All the tab was ear-transcribed.

If you see a problem please contact me as soon as you can.
            
Submit corrections

comments powered by Disqus
↑ Back to top | Muse Tabs for Easily. Lyrics for acoustic guitar and electric guitar. Tablatures and chords are parodies/interpretations of the original songs. You may use it for private study, scholarship, research or language learning purposes only