» » »

Muse, Easily Bass tabs (ver.1)

Artists:  A B C D E F G H I J K L M N O P Q R S T U V W X Y Z # 

Easily Bass tabs (ver.1)

Muse Tabs
Rating:
0/5 (0 votes)
Easily lessons Tabs too difficult? Try these video lessons and learn fast
                
Allbum: B-Sides (Starlight)



The tab is almost perfect.... listen a few times to the music before u start playing it!!


Intro & Verse

G||--5----------5---7----------7----|--7----------7---5-----------|
D||----77-77-77---7---55-55-55---5--|----33-33-33---3---22-22-22--|
A||---------------------------------|-----------------------------|
E||---------------------------------|-----------------------------|

G||--5---4----------4---2----------2---5-----------10---9----------9----|
D||----2---00-00-00---0------------------33-33-33-----7---66-66-66---6--|
A||-----------------------33-33-33---3----------------------------------|
E||---------------------------------------------------------------------|

Pre-Chorus

G||--5---------------5---5--------------|
D||----77-77-77-77-7---7---77-77-77-77--|
A||-------------------------------------|
E||-------------------------------------|

Chorus
                                                                X2   End of 2nd Chorus
G||----------------------------------------------------------------|--------|
D||--7----7---5-----5---5-------------3----3--2----2--2------------|--------|
A||--------------33--3------------------55--5---00--0--------------|---7/---|
E||----55--5--------------33-x3-x33---------------------00-x0-x00--|--------|
            

comments powered by Disqus
↑ Back to top | Muse Bass for Easily. Lyrics for acoustic guitar and electric guitar. Tablatures and chords are parodies/interpretations of the original songs. You may use it for private study, scholarship, research or language learning purposes only