» » »

Muse, Dark Shines Bass tabs (ver.2)

Artists:  A B C D E F G H I J K L M N O P Q R S T U V W X Y Z # 

Dark Shines Bass tabs (ver.2)

Muse Tabs
 Rating:
4/5 (4 votes)
Dark Shines lessons Tabs too difficult? Try these video lessons and learn fast
                Muse – Dark Shines

Intro
G|---------------------------------------------------------------|
D|-------------------------------------------2-----2h3-2----2----|
A|-0-5-7-8-0-5-8--0-5-7-8-0-5-8--8-7h8-7-4-0---4-0-------4-0---4-|
E|---------------------------------------------------------------|

G|---0-------0--------------------------------------------------|
D|-----0-------0---0-3-0----3-0---0-2-------2-------------------|
A|-0-----1---------------0------------4-0-----4-----0-2-4---0-4-|
E|---------3---------------1--------------3-------0-------0-----|


Verse
G|--------------------------------------------------------------|
D|--7-7-----7-7-----7-7-----7-7-----5-5-----3-3-----2-2-----7---|
A|------------------------------------------------------------0-|   \12
E|--------------------------------------------------------------|

G|---------------------------------------------------------------|
D|-------------------------------------------2-----2h3-2----2----|
A|---5-7-8-0-5-8--0-5-7-8-0-5-8--8-7h8-7-4-0---4-0-------4-0---4-|
E|---------------------------------------------------------------|

G|---0-------0--------------------------------------------------|
D|-----0-------0---0-3-0----3-0---0-2-------2-------------------|
A|-0-----1---------------0------------4-0-----4-----0-2-4---0-4-|
E|---------3---------------1--------------3-------0-------0-----|


Chorus
G|-------7----------------7-----------------------------------------|
D|--0-0-7---0-0-/12-0-0-7---0-0-/12--------7--------------7---------|
A|-----------------------------------0-0-7---0-0-/12-0-0-7--0-0-/12-|
E|------------------------------------------------------------------|

G|------------------------3-----------------------------------------|
D|-------5---------------3----------------7--------------7----------|
A|------5------------1-1----1-1-/13--0-0-7--0-0-/12-0-0-7---0-0-/12-|
E|--3-3-----3-3-/15-------------------------------------------------|


G|---------------------------------------------------------------|
D|-------------------------------------------2-----2h3-2----2----|
A|-0-5-7-8-0-5-8--0-5-7-8-0-5-8--8-7h8-7-4-0---4-0-------4-0---4-|
E|---------------------------------------------------------------|

G|---0-------0--------------------------------------------------|
D|-----0-------0---0-3-0----3-0---0-2-------2-------------------|
A|-0-----1---------------0------------4-0-----4-----0-2-4---0-4-|
E|---------3---------------1--------------3-------0-------0-----|


Verse
G|--------------------------------------------------------------|
D|--7-7-----7-7-----7-7-----7-7-----5-5-----3-3-----2-2-----7---|
A|------------------------------------------------------------0-|   \12
E|--------------------------------------------------------------|

G|---------------------------------------------------------------|
D|-------------------------------------------2-----2h3-2----2----|
A|---5-7-8-0-5-8--0-5-7-8-0-5-8--8-7h8-7-4-0---4-0-------4-0---4-|
E|---------------------------------------------------------------|

G|---0-------0--------------------------------------------------|
D|-----0-------0---0-3-0----3-0---0-2-------2-------------------|
A|-0-----1---------------0------------4-0-----4-----0-2-4---0-4-|
E|---------3---------------1--------------3-------0-------0-----|


Chorus
G|-------7----------------7-----------------------------------------|
D|--0-0-7---0-0-/12-0-0-7---0-0-/12--------7--------------7---------|
A|-----------------------------------0-0-7---0-0-/12-0-0-7--0-0-/12-|
E|------------------------------------------------------------------|

G|------------------------3-----------------------------------------|
D|-------5---------------3----------------7--------------7----------|
A|------5------------1-1----1-1-/13--0-0-7--0-0-/12-0-0-7---0-0-/12-|
E|--3-3-----3-3-/15-------------------------------------------------|

G|-------7----------------7-----------------------------------------|
D|--0-0-7---0-0-/12-0-0-7---0-0-/12--------7--------------7---------|
A|-----------------------------------0-0-7---0-0-/12-0-0-7--0-0-/12-|
E|------------------------------------------------------------------|

G|------------------------3-----------------------------------------|
D|-------5---------------3----------------7--------------7----------|
A|------5------------1-1----1-1-/13--0-0-7--0-0-/12-0-0-7---0-0-/12-|
E|--3-3-----3-3-/15-------------------------------------------------|


Bridge
G|---0-------0-------0------0-------------------------------------------|
D|-----0-------0---0---0------0------2h3-2-----2---------2h3-2----2-----|  2X
A|-------1---------------1----------0-------4-0---4----0-------4-0---4--|
E|---------3---------------3--------------------------------------------|

G|---1--------1-----1-------1----------2-----2-------2-----2----|
D|-----3-0-----3--3---3-0-----3------2-----2-------2-----2------|
A|---------2--------------2------0-0-----0-----0-0-----0--------|
E|--------------------------------------------------------------|

G|----------------|
D|---5-5----5-5---|
A|----------------|
E|----------------|

Chorus
G|--------------------------------------------|
D|-------------------------------5-5---5-5----|
A|-5-7-8-0-5-8--0-5-7-8-0-5-8-----------------|
E|--------------------------------------------|

G|--------------------------------------------|
D|-------------------------------5-5---5-5----|
A|-5-7-8-0-5-8--0-5-7-8-0-5-8-----------------|
E|--------------------------------------------|

G|-------------------------------1-----1-----------|
D|---------------------------------3-----3---------|
A|-5-7-8-0-5-8--0-5-7-8-0-5-8------------------7---| fade out
E|-------------------------------------------------|

G|-------7----------------7-----------------------------------------|
D|--0-0-7---0-0-/12-0-0-7---0-0-/12--------7--------------7---------|
A|-----------------------------------0-0-7---0-0-/12-0-0-7--0-0-/12-|
E|------------------------------------------------------------------|

G|------------------------3-----------------------------------------|
D|-------5---------------3----------------7--------------7----------|
A|------5------------1-1----1-1-/13--0-0-7--0-0-/12-0-0-7---0-0-/12-|
E|--3-3-----3-3-/15-------------------------------------------------|

G|-------7----------------7-----------------------------------------|
D|--0-0-7---0-0-/12-0-0-7---0-0-/12--------7--------------7---------|
A|-----------------------------------0-0-7---0-0-/12-0-0-7--0-0-/12-|
E|------------------------------------------------------------------|

G|------------------------3-----------------------------------------|
D|-------5---------------3----------------7--------------7----------|
A|------5------------1-1----1-1-/13--0-0-7--0-0-/12-0-0-7---0-0-/12-|
E|--3-3-----3-3-/15-------------------------------------------------|


Outro
G|-----------------------------------------------|
D|-------5h7-----------------------5h7----0------| fade out
A|--0-0------0-0---0-0---0-0---0-0---------------|
E|-----------------------------------------------|
            
Submit corrections

comments powered by Disqus
↑ Back to top | Muse Bass for Dark Shines. Lyrics for acoustic guitar and electric guitar. Tablatures and chords are parodies/interpretations of the original songs. You may use it for private study, scholarship, research or language learning purposes only