» » »

Muse, Dark Shines Bass tabs (ver.1)

Artists:  A B C D E F G H I J K L M N O P Q R S T U V W X Y Z # 

Dark Shines Bass tabs (ver.1)

Muse Tabs
 Rating:
4/5 (4 votes)
Dark Shines lessons Tabs too difficult? Try these video lessons and learn fast
                Song - Dark Shines
Artist - Muse

Intro, some dodgy timing but just listen for it:

G|--------------------------------------------------------------|
D|---0-2-3---0-3---0-2-3---0-3-3-2h3-2-----2-----2h3-2-----2----|
A|-0-------0-----0-------0-------------4-0---4-0-------4-0---4--|
E|--------------------------------------------------------------|

G|---0-------0--------------------------2-------2-2-------------|
D|-----0-------0---0-3-0----3-0---0---2-----2-------------------|
A|-0-----1---------------0----------0-----0---------0-2-4---0-4-|
E|---------3---------------1------------------------------0-----|

Verse:

G|--------------------------------------------2-2-|
D|--0-0---0-0-------------------------------------|
A|--------------0-0---0-0---------1-1---0-0-------|
E|--------------------------3-3-------------------|

Then back into the intro riff. Then into the Chorus:

G|-------------------------------------------------------------|
D|-0-0-5h7-0-0-/--0-0-5h7-0-0-/--------------------------------|
A|-------------------------------0-0-5h7-0-0-/--0-0-5h7-0-0-/--|
E|-------------------------------------------------------------|

G|-------------------------------------------------------------|
D|--------------------2h3--------------------------------------|
A|-----3h5--------1-1-----1-1-/--0-0-5h7-0-0-/--0-0-5h7-0-0-/--|
E|-3-3-----3-3-/-----------------------------------------------|

Do the intro and verse again. Then back into the chorus. Then wee guitar bit:

G|-0-------0-------0------0-----------------------------------|
D|---0-------0---0---0------0---0-0-2-3---0--3----0-2-3---0-3-|
A|-----1---------------1----------------0-------0-------0-----| x2
E|-------3---------------3------------------------------------|

G|-1--------1------1--------1----------2-----2-------2-----2----|
D|---3-0------3--3---3-0------3------2-----2-------2-----2------|
A|-------2---------------2-------0-0-----0-----0-0-----0--------|
E|--------------------------------------------------------------|

G|-1--------1------1--------1------2-------2------2-------2---|
D|---3-0------3--3---3-0------3------2-------2------2-------2-|
A|-------2---------------2-------0-----4-0------0-----4-0-----|
E|------------------------------------------------------------|

This next bit is kinda the intro riff with bits missed out:

G|----------------------------------------|
D|-5-5--5-5----0-2-3---0-3---0-2-3---0-3--|
A|-------------------0-----0-------0------| x3
E|----------------------------------------|

G|------------------|
D|-7-----7-------7--|
A|---7-----7--------|
E|------------------|

Then its just back to the chorus but with some higher slides
End part is just messing around with the D|-0-0-5h7-0-0- idea.
            
Submit corrections

comments powered by Disqus
↑ Back to top | Muse Bass for Dark Shines. Lyrics for acoustic guitar and electric guitar. Tablatures and chords are parodies/interpretations of the original songs. You may use it for private study, scholarship, research or language learning purposes only