» » »

Muse, Citizen Erased Tabs (ver.6)

Artists:  A B C D E F G H I J K L M N O P Q R S T U V W X Y Z # 

Citizen Erased Tabs (ver.6)

Muse Tabs
 Rating:
4/5 (4 votes)
Citizen Erased lessons Tabs too difficult? Try these video lessons and learn fast
                SOLO - 	the start of the actual solo was just a bunch of squealy notes i 
couldn't tab so ill tab the start from Hullaballoo which is just as good. the rest
is from the recording
E|-------------------------------------|-------------------------------------|
B|-------------------------------------|-------------------------------------|
G|---------------------------------12^-|---------------------------------12^-|
D|-------------------------------------|-------------------------------------|
A|-0-12-12-0--12-12-0--12-12-0--12-----|-0-14-14-0--14-14-0--14-14-0--14-----|
A|-------------------------------------|-------------------------------------|


E|-------------------------------------|-------------------------------------|
B|-------------------------------------|-------------------------------------|
G|---------------------------------12^-|---------------------------------12^-|
D|-------------------------------------|-------------------------------------|
A|-0-15-15-0--15-15-0--15-15-0--15-----|-0-17-17-0--17-17-0--17-17-0--17-----|
A|-------------------------------------|-------------------------------------|

E|-------------------------------------|-------------------------------------|
B|-------------------------------------|-------------------------------------|
G|------11^-------------13^------------|--13~~~~~-13---/14---/16-------------|
D|-------------------------------------|-------------------------------------|
A|-------------------------------------|----------11---/12---/14-------------|
A|-------------------------------------|-------------------------------------|
						  tremelo picking

E|-------------------------------------|-------------------------------------|
B|-------------------------------------|-------------------------------------|
G|--16^^^--------------19^^^^^---------|-17---16h17p16---14-14--------21^^---|
D|-------------------------------------|-------------------------------------|
A|-------------------------------------|-------------------------------------|
A|-------------------------------------|-------------------------------------|

E|-------------------------------------|-------------------------------------|
B|-------------------------------------|-------------------------------------|
G|-23^^^^^^----------------------------|--20p17--20-20--20^full--------------|
D|-------------------------------------|-------------------------------------|
A|-------------------------------------|-------------------------------------|
A|-------------------------------------|-------------------------------------|

E|---------____--------/---etc etc-----|-------------------------------------|
B|--------/----\------/----------------|-------------------------------------|
G|----20^/------\----/-----------------|-----12^-----------------------------|
D|---------------\--/------------------|-------------------------------------|
A|----------------\/-------------------|-------------------------------------|
A|-------------------------------------|-------------------------------------|
    this bit is all insane whammy pedal work

Live Solo
This solo is played often in the live versions
E|-------------------------------------|-------------------------------------|
B|-------------------------------------|-------------------------------------|
G|---------------------------------12^-|---------------------------------12^-|
D|-------------------------------------|-------------------------------------|
A|-0-12-12-0--12-12-0--12-12-0--12-----|-0-14-14-0--14-14-0--14-14-0--14-----|
A|-------------------------------------|-------------------------------------|


E|-------------------------------------|-------------------------------------|
B|-------------------------------------|-------------------------------------|
G|---------------------------------12^-|---------------------------------12^-|
D|-------------------------------------|-------------------------------------|
A|-0-15-15-0--15-15-0--15-15-0--15-----|-0-17-17-0--17-17-0--17-17-0--17-----|
A|-------------------------------------|-------------------------------------|

E|-------------------------------------|-------------------------------------|
B|-------------------------------------|-------------------------------------|
G|------11^-------------13^------------|--13~~~~~-13---/14---/16--16---------| let ring the 16
D|-------------------------------------|-------------------------------------| 
A|-------------------------------------|----------11---/12---/14-------------|
A|-------------------------------------|-------------------------------------|
						  tremelo picking
E|-------------------------------------|-------------------------------------|
B|--------------------------------21^22|-------------------------------------|
G|-21^22-----23^24------24^25----------|--2^4---2p0h2p0h2p0h2p0h2p0h2p0--1^2-|
D|-------------------------------------|-------------------------------------|
A|-------------------------------------|-------------------------------------|
A|-------------------------------------|-------------------------------------|
            
Submit corrections

comments powered by Disqus
↑ Back to top | Muse Tabs for Citizen Erased. Lyrics for acoustic guitar and electric guitar. Tablatures and chords are parodies/interpretations of the original songs. You may use it for private study, scholarship, research or language learning purposes only