>
 >
Citizen Erased

Citizen Erased Bass Tabs

Muse - Citizen Erased chords, tabs, tablatures, lyrics

Guitar lessons | Add/correct | Request | Top 50 tabs Artists:  A B C D E F G H I J K L M N O P Q R S T U V W X Y Z 0-9

Citizen Erased Bass Tabs – Muse

CD, Sheet music, Poster

Do you like Citizen Erased? Share with your friends now
Bass TabsBass Tabs v2ChordsTabsTabs v2Tabs v3Tabs v4Tabs v5Tabs v6Tabs v7Tabs v8Ukulele
intro: 8 bars of guitar + drums

listen to this bit to get timing right as it is hard to show on tab

G:-------------------------------------------------------------------
D:-------------------------------------------------------------------
A:-0-0-12-0-12-12--0--12-12--0--12--0-0--10--0--10-10--0-10-10--0--10
E:-------------------------------------------------------------------

G:-------------------------------------------------------------------
D:------------------------------------------------------------------- x6
A:--0--0--8--0--8-8--0--8-8--0--8--0--0--7--0--7-7--0--7-7--0--7-----
E:-------------------------------------------------------------------



G:-------------------------------------------------------------------
D:-3-3-3-3-3-3-3-3-----------------2-2-2-2-2-2-2-2-7-7-7-7-5-5-5-5---
A:-----------------3-3-3-3-3-3-3-3-----------------------------------
E:-------------------------------------------------------------------

G:-------------------------------------------------------------------
D:-3-3-3-3-3-3-3-3--------------------------------------------------- x3
A:-----------------3-3-3-3-3-3-3-3-2-2-2-2-2-2-2-2-2-2-2-2-2-2-2-2---
E:-------------------------------------------------------------------



Quiet bit

G:-----------------------------------------
D:--7--------5--------3--------2-----------  x7
A:-----------------------------------------
E:-----------------------------------------

G:-------------------------------------------------------------------
D:--3-3------------------2-2-------7-7---5-5---3-3-----------------2-
A:-------------3-3--------------------------------------------3-3----
E:-------------------------------------------------------------------

rest for 4 bars

G:-------------------------------------------------------------------
D:-------------------------------------------------------------------
A:-0-0-12-0-12-12--0--12-12--0--12--0-0--10-0--10-10-0--10-10--0--10-
E:-------------------------------------------------------------------

G:-------------------------------------------------------------------
D:-------------------------------------------------------------------  x2
A:--0--0--8--0--8-8--0--8-8--0--8--0--0--7--0--7-7--0--7-7--0--7-----
E:-------------------------------------------------------------------



G:-------------------------------------------------------------------
D:--3-3-3-3-3-3-3-3-----------------2-2-2-2-2-2-2-2-7-7-7-7-5-5-5-5--
A:------------------3-3-3-3-3-3-3-3----------------------------------
E:-------------------------------------------------------------------

G:-------------------------------------------------------------------
D:-3-3-3-3-3-3-3-3-----------------2-2-2-2-2-2-2-2-2-2-2-2-2-2-2-2---  x4
A:-----------------3-3-3-3-3-3-3-3-----------------------------------
E:-------------------------------------------------------------------


Ending (quiet)

G:-----------------------------------------
D:--3--------5--------7--------2-----------  x3
A:-----------------------------------------
E:-----------------------------------------


G:--------------------------------------------------------------
D:--3--------5--------------------------------------------------
A:----------------------3--------3--------3---------3-----------
E:--------------------------------------------------------------

G:-------------------------------------------------------------------
D:-------------------------------------------------------------------
A:--3--------0-------------------------------------5--------0--------
E:---------------------3--------1--------0---------------------------

G:------------------------------------------------------
D:---------------------------------5----5-5--2----------  x2
A:----------------------------------------------3-------
E:-3---------1--------1---------------------------------





Comments


Popular Muse tabs & chords
Big Freeze Bass Tabs
Exo-politics Bass Tabs
Citizen Erased 2 Tabs
Citizen Erased 3 Tabs
Citizen Erased 6 Tabs
Darkshines 1 Tabs
Map Of The Problematique 3 Tabs
Map Of The Problematique 4 Tabs
Sunburn Tabs
Big Freeze Ukulele


Song lyrics



↑ Back to top | Tablatures and chords are parodies/interpretations of the original songs. You may use it for private study, scholarship, research or language learning purposes only
© 2014 AZChords.com Contact us | Privacy policy | DMCA | Add/correct tabs | Request tabs | Top 50 tabs