>
 >
Citizen Erased 1

Citizen Erased 1 Guitar Tabs

Muse - Citizen Erased 1 chords, tabs, tablatures, lyrics

Guitar lessons | Add/correct | Request | Top 50 tabs Artists:  A B C D E F G H I J K L M N O P Q R S T U V W X Y Z 0-9

Citizen Erased 1 Guitar Tabs – Muse

CD, Sheet music, Poster

Do you like Citizen Erased 1? Share with your friends now
Bass TabsBass Tabs v2ChordsTabsTabs v2Tabs v3Tabs v4Tabs v5Tabs v6Tabs v7Tabs v8Ukulele
Tuning: A,A,D,G,B,e

Intro
e|-------------------------------------------------------------------|
B|-------------------------------------------------------------------|
G|-------------------------------------------------------------------|
D|-------------------------------------------------------------------|
A|-------2*--0-2*--0-2*-0-2*-0--2*--------2*--0-2*--0-2*-0-2*-0--2*--|
A|-0--0-----------------------------0--0-----------------------------|
  *Harmonic found midway between frets 2 and 3

e|-------------------------------------------------------------------|
B|-------------------------------------------------------------------|
G|-------------------------------------------------------------------|
D|-------------------------------------------------------------------| x2
A|-------3*--0-3*--0-3*-0-3*-0--3*--------3*--0-3*--0-3*-0-3*-0--3*--| 
A|-0--0-----------------------------0--0-----------------------------|
  *Harmonic found slightly above 3rd fret

e|-------------------------------------------------------------------|
B|-------------------------------------------------------------------|
G|-------------------------------------------------------------------|
D|-------------------------------------------------------------------|
A|-0--0--12--0-12--0-12-0-12-0--12--0--0--10--0-10--0-10-0-10-0--10--|
A|-0--0--12--0-12--0-12-0-12-0--12--0--0--10--0-10--0-10-0-10-0--10--|

e|-------------------------------------------------------------------|
B|-------------------------------------------------------------------|
G|-------------------------------------------------------------------|
D|-------------------------------------------------------------------| x2
A|-0--0--8---0-8---0-8--0-8--0--8---0--0--7---0-7---0-7--0-7--0--7---|
A|-0--0--8---0-8---0-8--0-8--0--8---0--0--7---0-7---0-7--0-7--0--7---|

Verse
e|------------------------------------------------------------------------|
B|------------------------------------------------------------------------|
G|------------------------------------------------------------------------|
D|------------------------------------------------------------------------|
A|-0-12-12-0-12-12-0-12-0-12-12-0-12-0-12-12-0-14-14-0-14-14-0-14-0-14-14-|
A|------------------------------------------------------------------------|

e|--------------------------------------------------------------------|
B|--------------------------------------------------------------------|
G|--------------------------------------------------------------------|
D|--------------------------------------------------------------------|
A|-0-14-0-14-14-0-14-0-14-0-0-15-15-0-15-15-0-15-0-15-15-0-15-0-15-0--|
A|--------------------------------------------------------------------|

e|--------------------------------------------------------------------------|
B|--------------------------------------------------------------------------|
G|--------------------------------------------------------------------------|
D|--------------------------------------------------------------------------|
A|-0-17-17-0-17-17-0-17-0-17-17-0-17-0-17-0-17-0-15-15-0-15-15-0-15-0-15-15-|
A|--------------------------------------------------------------------------|

e|-------------------------------------------------------------|
B|-------------------------------------------------------------|
G|-------------------------------------------------------------|
D|-------------------------------------------------------------|
A|-0-15-0-15-0-12-14-14-12-14-14-12-14-12-14-14-12-14-12-14-12-|
A|-------------------------------------------------------------|

e|--------------------------------------------------------------------------|
B|--------------------------------------------------------------------------|
G|--------------------------------------------------------------------------|
D|--------------------------------------------------------------------------|
A|-0-12-12-0-12-12-0-12-0-12-12-0-12-0-12\10-0-11-11-0-11-11-0-11-0-11-11-0-|
A|--------------------------------------------------------------------------|

e|--------------------------------------------------------------------------|
B|--------------------------------------------------------------------------|
G|-------2---2--2--2--2--2--2--2--2--2--------4---4--4--4--4--4--4--4--4--4-|
D|-------x---x--x--x--x--x--x--x--x--x--------x---x--x--x--x--x--x--x--x--x-|
A|-------0---0--0--0--0--0--0--0--0--0--------2---2--2--2--2--2--2--2--2--2-|
A|-0--0---------------------------------0--0--------------------------------|

e|--------------------------------------------------------------------------|
B|--------------------------------------------------------------------------|
G|-------5---5--5--5--5--5--5--5--5--5--------7---7--7--7--7--7--7--7--7--7-|
D|-------x---x--x--x--x--x--x--x--x--x--------x---x--x--x--x--x--x--x--x--x-|
A|-------3---3--3--3--3--3--3--3--3--3--------5---5--5--5--5--5--5--5--5--5-|
A|-0--0---------------------------------0--0--------------------------------|
  x2

Chorus
e|--------------------------------------------------------------------------|
B|--------------------------------------------------------------------------|
G|-10-10-10-10-10-10-10-10-5-5-5-5-5-5-5-5----------------------------------|
D|-10-10-10-10-10-10-10-10-5-5-5-5-5-5-5-5-6-6-6-6-6-6-6-7-7-7-7-9--9--9--9-|
A|-8--8--8--8--8--8--8--8--3-3-3-3-3-3-3-3-7-7-7-7-7-7-7-0-0-0-0-10-10-10-10|
A|-8--8--8--8--8--8--8--8--3-3-3-3-3-3-3-3-7-7-7-7-7-7-7-0-0-0-0-10-10-10-10|

e|-------------------------------------------------------------------------|
B|-------------------------------------------------------------------------|
G|-10-10-10-10-10-10-10-10-5-5-5-5-5-5-5-5---------------------------------|
D|-10-10-10-10-10-10-10-10-5-5-5-5-5-5-5-5-9-9-9-9-9-9-9-9-9-9-9-9-9-9-9-9-|
A|-8--8--8--8--8--8--8--8--3-3-3-3-3-3-3-3-7-7-7-7-7-7-7-7-7-7-7-7-7-7-7-7-|
A|-8--8--8--8--8--8--8--8--3-3-3-3-3-3-3-3-7-7-7-7-7-7-7-7-7-7-7-7-7-7-7-7-|

Interlude 1(w/clean)
e|------5--------8--------7--------6--------5-----------5--------4--------|
B|---------5--------5--------5--------5--------5-----3-----3--------3-----|
G|-2/5--------5--------5--------5--------5--------5-----------5--------5--|
D|------------------------------------------------------------------------|
A|------------------------------------------------------------------------|
A|------------------------------------------------------------------------|

e|-3---------------3-----------3--------2--------1--------2--------3-------|
B|----3---------3-----3-----1-----1--------1--------1--------1--------1----|
G|-------5--4------------2-----------2--------2--------2--------2--------4-|
D|-------------------------------------------------------------------------|
A|-------------------------------------------------------------------------|
A|-------------------------------------------------------------------------|

e|----4-----------4-----------------------------------5--------6---------|
B|-3-----3-----3-----3--------3--------3-----------5-----5--------5------|
G|----------4--------------4--------4--------4--5-----------5--------5---|
D|----------------------3--------3--------2------------------------------|
A|-----------------------------------------------------------------------|
A|-----------------------------------------------------------------------|

e|-7--------8--------7-----------7--------8--------9--------10-------9----|
B|----5--------5--------0-----8-----8--------8--------8--------8--------0-|
G|-------5--------5--------7-----------7--------7--------7--------7-------|
D|------------------------------------------------------------------------|
A|------------------------------------------------------------------------|
A|------------------------------------------------------------------------|

e|--------8--------9-------10--------11--------12--------------12--------|
B|----10----10-------10-------10--------10--------10--------9------------|
G|-10----------10-------10-------10--------10------------9---------------|
D|----------------------------------------------------9------------------|
A|-----------------------------------------------------------------------|
A|-----------------------------------------------------------------------|

Intro Build-up
e|---------------------------------|
B|-----------------0-0-0-0-0-0-0-0-|
G|-1-1-1-1-1-1-1-1-1-1-1-1-1-1-1-1-|
D|-2-2-2-2-2-2-2-2-2-2-2-2-2-2-2-2-|
A|---------2-2-2-2-2-2-2-2-2-2-2-2-|
A|---------------------------------|

Solo
e|-------------------------------------------------------------------------|
B|-12b(13)-----------------------------------------------------------------|
G|-----------9b(10)---11b(12)---13^---13~~~~~---13-13-13-14-14-14-14-14-14-|
D|-------------------------------------------------------------------------|
A|-------------------------------------------------------------------------|
A|-------------------------------------------------------------------------|

e|--------------------------------------------------------------------------|
B|--------------------------------------------------------------------------|
G|-16-16-16-16-16-16-16-16-16^(17)---19-19-19-19^(20)*---17--16h17p16h14-14-|
D|--------------------------------------------------------------------------|
A|--------------------------------------------------------------------------|
A|--------------------------------------------------------------------------|
  *w/whammy pedal

e|--------------------------------------------------------------------------|
B|----------------------20p17-20-20--20^(22)*-----------------------12^(15)-|
G|-21^(22)---23^(24)--------------------------------------------------------|
D|--------------------------------------------------------------------------|
A|--------------------------------------------------------------------------|
A|--------------------------------------------------------------------------|

Interlude 2(w/clean)
e|-----------------------------------------------------0~~~~~*----------|
B|--------------------------------------------------0-------------------|
G|-2--------2h4-----4~~~~~*----0---4^(5)---2-----1----------------------|
D|---------------0-------------------------------------------------2h3--|
A|----------------------------------------------------------------------|
A|----------------------------------------------------------------------|
  *w/bar

e|----------0-----------0-----------0-----------0-----------0-----------0--|
B|-------------5-----5-----5-----5-----5-----5-----5-----5-----5-----5-----|
G|-----4h5--------5-----------5-----------5-----------5-----------5--------|
D|-1h2---------------------------------------------------------------------|
A|-------------------------------------------------------------------------|
A|-------------------------------------------------------------------------|

e|----------0-----------0-----------0-----------0-----------0-----------0-|
B|-5-----5-----3-----3-----3-----3-----3-----3-----3-----3-----1-----1----|
G|----5-----------4-----------4-----------4-----------4-----------2-------|
D|------------------------------------------------------------------------| 
A|------------------------------------------------------------------------|
A|------------------------------------------------------------------------|

e|-0-----------0-----------0-----------0-----------0-----------0-----------|
B|----5-----5-----5-----5-----5-----5-----5-----5-----5-----5-----5-----5--|
G|-------5-----------5-----------5-----------5-----------5-----------5-----|
D|-------------------------------------------------------------------------|
A|-------------------------------------------------------------------------|
A|-------------------------------------------------------------------------|

e|-0-----------0-----------0------------0--------------------------------|
B|----3-----3-----3-----3-----1------------1---------------1-------------|
G|-------4-----------4-----------0------------0------0-----0-------------|
D|----------------------------------2------------2-----------------------|
A|-----------------------------------------------------------------------|
A|-----------------------------------------------------------------------|





Comments


Popular Muse tabs & chords
Coma Bass Tabs
Eternally Missed 2 Bass Tabs
Pluginbaby Bass Tabs
Uno 2 Bass Tabs
Butterflies And Hurricanes Chords
Glorious Chords
Assassin 1 Drum Tabs
Ashamed Tabs
Bliss Studio Edit Tabs
Invincible Tabs


Song lyrics



↑ Back to top | Tablatures and chords are parodies/interpretations of the original songs. You may use it for private study, scholarship, research or language learning purposes only
© 2014 AZChords.com Contact us | Privacy policy | DMCA | Add/correct tabs | Request tabs | Top 50 tabs