>
 >
Citizen Erased 6

Citizen Erased 6 Guitar Tabs

Muse - Citizen Erased 6 chords, tabs, tablatures, lyrics

Guitar lessons | Add/correct | Request | Top 50 tabs Artists:  A B C D E F G H I J K L M N O P Q R S T U V W X Y Z 0-9

Citizen Erased 6 Guitar Tabs – Muse

CD, Sheet music, Poster

Do you like Citizen Erased 6? Share with your friends now
Bass TabsBass Tabs v2ChordsTabsTabs v2Tabs v3Tabs v4Tabs v5Tabs v6Tabs v7Tabs v8Ukulele
Note:
This tab is a 7 string guitar
arranged for a 6 string guitar
Drop The low E to an A, too. 
but if u couldnt be bothered doin it u could get away with it in standed tuning.
Intro:

*=harmonics
e|---------------------------|
b|---------------------------|
g|---------------------------|
d|---------------------------|
a|-------7---7-7---7-7---77--|
a|--0-0----0-----0-----0-----| (x2)
        *   * *   * *   **

e|-------------------------------|
b|-------------------------------|
g|-------------------------------|
d|-------------------------------| 
a|-------------------------------|        last time
a|--0-0----4--0-44--0-4-4--0-44--| (x2)  a|0-0----4--0--4-|
          *    **    * *    **                 *     *

d------------------------------------------------------------------------------
a--0--0---12--0--12--12--0-12-12-0-12---0--0---10--0--10--10--0-10-10-0-10-10--
a--0--0---12--0--12--12--0-12-12-0-12---0--0---10--0--10--10--0-10-10-0-10-10--

d-------------------------------------------------------------------
a--0--0---8--0--8--8--0-8-8-0-8-8---0--0---7--0--7--7--0-7-7-0-7-7--
a--0--0---8--0--8--8--0-8-8-0-8-8---0--0---7--0--7--7--0-7-7-0-7-7--

                        'Break me in........................teach....
 D------------------------------------------------------------------------]
 A--0-12-12-0-12-12-0-12-0-12-12--0-14-14-0-14-14-0-14-0-14-14-0-14-0-14--]
 A------------------------------------------------------------------------]


     .........us...to...cheat.......................and to lie........
 D------------------------------------------------------------------------]
 A--0-15-15-0-15-15-0-15-0-15-15--0-17-17-0-17-17-0-17-0-17-17-0-17-0-17--]
 A------------------------------------------------------------------------]


     .....and cover up........      ........What shouldnt......
 D------------------------------------------------------------------------]
 A--0-15-15-0-15-15-0-15-0-15-15--12-14-12-14-12-14-12-14-12-14-12-14-12--]
 A------------------------------------------------------------------------]


     .....be shared.......            ..And the truths.......
 D------------------------------------------------------------------------]
 A--0-12-12-0-12-12-0-12-0-12/10--0-11-11-0-11-0-11-11-0-11-0-11-11-0-----]
 A------------------------------------------------------------------------]


                     ..un..   -         ...wind..     -   ...ing...
 g--------2----2--2--2--2--2--2--2--2--2---------4----4--4--4--4--4--4--4-]
 D--------x----x--x--x--x--x--x--x--x--x---------x----x--x--x--x--x--x--x-]
 A--------0----0--0--0--0--0--0--0--0--0---------2----2--2--2--2--2--2--2-]
 A--0--0-----------------------------------0--0---------------------------]


           ....Scra.......ping...  ..away....      ...at my mind.
 g--------5----5--5--5--5--5--5--5--5--5---------7----7--7--7--7--7--7--7-]
 D--------x----x--x--x--x--x--x--x--x--x---------x----x--x--x--x--x--x--x-]
 A--------3----3--3--3--3--3--3--3--3--3---------5----5--5--5--5--5--5--5-]
 A--0--0-----------------------------------0--0---------------------------]


                  Please  stop  ask..............ing
 g--------2----2--2--2--2--2--2--2--2--2---------4----4--4--4--4--4--4--4-]
 D--------x----x--x--x--x--x--x--x--x--x---------x----x--x--x--x--x--x--x-]
 A--------0----0--0--0--0--0--0--0--0--0---------2----2--2--2--2--2--2--2-]
 A--0--0-----------------------------------0--0---------------------------]


       me............ to ......describe........
 g--------5----5--5--5--5--5--5--5--5--5---------7----7--7--7--7--7--7--7-]
 D--------x----x--x--x--x--x--x--x--x--x---------x----x--x--x--x--x--x--x-]
 A--------3----3--3--3--3--3--3--3--3--3---------5----5--5--5--5--5--5--5-]
 A--0--0-----------------------------------0--0---------------------------]

 
After a small break this riff is played.

 e--5-----8-------7-----6-----5---------5------4-------3---------------3----]
 b----5-----5-------5-----5-----5----3-----3------3------3----------3-----3-]
 g------5------5------5-----5-----5----------5------5-------5--4------------]

 e------3------2-----1-----2-------3----------4--------4--------------------]
 b----1---1------1-----1-----1--------1-----3---3---3----------3---3--------]
 g--2-------2-------2----2------2---------4-------4----------4----4-----4---]
 D---------------------------------------------------------3----3-----2-----]

 e------5-----6------7----8-----7---------7--------8----9-----10---9---------]
 b----5---5------5-----5----5------0----8---8--------8----8-----8----0-------]
 g--5-------5------5-----5----5------7---------7-------7----7----7-----------]

 e---------8--------9---------10---------11---------12------------12------]
 b-----10----10--------10---------10---------10--------10--------9--------]
 g--10----------10---------10---------10---------10------------9----------]
 D-----------------------------------------------------------9------------]

 e-----------1-------------------0-----------------------0-------------0--]
 b------1----------1--------1----------1----------0-----------------1-----]
 g----2---2-----2-----2---0---0-----0-----0----1-----1-----1----2---------]
 D--3-------------------2--------------------2----------------------------]

 e--------------0--------------1--------------------0-------------------]
 b----1-----1------1------1---------1---------1-------------1-----------]
 g-------0--------------2---2----2-----2---0-----0------0-------0---1---]
 D--------------------3------------------2------------------------2-----]

 e-------0-------------0-----------0---------------1-----------------0---]
 b--0----------0-----0---0-----0------0------1----------1--------1-------]
 g----1-----1----1----------1--------------2---2------2----2---0---0---0-]
 D-----------------2---------------------3-------------------2-----------]

 
 e--------------0----------------0---------0-------------1--------------]
 b--1-------0--------0---------1---1----1-----1------1--------1---------]
 g----0---1---1---1-----1---2--------0-------------2---2----2---2-------]
 D------2----------------------------------------3----------------2-----]

 e------------0---------------------------------------------------------]
 b-----1-------------1-------------------------0-0-0-0-0-0-0-0-0-0-0-0--]
 g--0-----0------0-------0---1-1-1-1-1-1-1-1-1-1-1-1-1-1-1-1-1-1-1-1-1--]
 D-------------------------------------2-2-2-2-2-2-2-2-2-2-2-2-2-2-2-2--]

e|---------------------------|
b|---------------------------|
g|---------------------------|
d|---------------------------|
a|-------7---7-7---7-7---77--|
a|--0-0----0-----0-----0-----| (x2)
        *   * *   * *   **

e|-------------------------------|
b|-------------------------------|
g|-------------------------------|
d|-------------------------------|
a|-------------------------------|
a|--0-0----4--0-44--0-4-4--0-44--| (x2)
          *    **    * *    **

Solo:there is also some tremlo picking here u can figure out where it is.

e|----------------------------------|
b|-----------15b17b15--13--12b13b12-|
g|--14-16-17------------------------|
d|----------------------------------|
a|----------------------------------|
a|----------------------------------|

e|------19------------12b13--13b15--16b15-15--15b16--|
b|--/19----12b13b12----------------------------------|
g|---------------------------------------------------|
d|---------------------------------------------------|
a|---------------------------------------------------|
a|---------------------------------------------------|

e|------20------------------|
b|--/19-----15----12b13b12--|
g|--------------------------|
d|--------------------------|
a|--------------------------|
a|--------------------------|


Ending:

e|-----------------------------0----------------------------------0----------|
b|---------------------------0-----------------------------------0-----------|
g|--2--2/4--0--4b5-4b5-4-2-1------2---2---2/4-0--4b5-4b5-4--2--1-----1h2-----|
d|----------------------------------2---3-------------------------------1h2--|
a|---------------------------------------------------------------------------|
a|---------------------------------------------------------------------------|

e|----0---0---0---0---0---0---0---0---0---0---0---0---0---0--|
b|---1-1-1-1-1-1-1-1-1-1-1-1-3-3-3-3-3-3-3-3-1-1-1-1-1-0-----|
g|--2---2---2---2---0---0---0---0---2---2---2---2---1--------|
d|-----------------------------------------------------------|
a|-----------------------------------------------------------|
a|-----------------------------------------------------------|

e|-0---0---0---0---0---0---0---0---0---0---0---0---0------0--|
b|--1-1-1-1-1-1-1-1-3-3-3-3-3-3-3-3-3-1-1-1-1-1-1-1-1----1---|
g|---2---2---2---2---0---0---0---0---0---0---0---0------0----|
d|-----------------------------------------------------2-----|
a|----------------------------------------------------3------|
a|-----------------------------------------------------------|

piano part
Outro Chords:

e|----0----0----0----1----1----0----0----0----1----1----0----|
b|----1----1----1----1----1----1----0----1----1----1----1----|
g|----0----2----0----2----1----0----1----2----2----1----0----|
d|----2----2----2----3----3----2----2----2----3----3----2----|
a|----3----0----3----3----3----3----2----0----3----3----3----|
a|-----------------------------------------------------------|

this sound very close to me but make up your own mind about it.





Comments


Popular Muse tabs & chords
Exo-politics 4 Bass Tabs
Host 2 Bass Tabs
Map Of Your Head 2 Bass Tabs
Megalomania Chords
Bliss Drum Tabs
Dead Star 7 Tabs
Nature_1 Tabs
Sunburn Live Intro Tabs
The Small Print 1 Tabs
Dark Shines Ukulele


Song lyrics



↑ Back to top | Tablatures and chords are parodies/interpretations of the original songs. You may use it for private study, scholarship, research or language learning purposes only
© 2014 AZChords.com Contact us | Privacy policy | DMCA | Add/correct tabs | Request tabs | Top 50 tabs