» » »

Muse, Burning Bridges Tabs (ver.1)

Artists:  A B C D E F G H I J K L M N O P Q R S T U V W X Y Z # 

Burning Bridges Tabs (ver.1)

Muse Tabs
Rating:
0/5 (0 votes)
Hard to play? Try these video lessons and learn fast.
                E|------------------------------------------------------|
B|-----4-4------4-4-----4-4---4-5---------4-4-------5-5-|
G|---4--------4-------4-----6-----6-6---4-----6-4-------|
D|-4--------4-------4-----------------4-----------6-----|
A|------------------------------------------------------|
E|------------------------------------------------------|

E|-----------------------------------------------------|
B|-----4-4--------------4-4------4-4-----4-4---4-5-----|
G|---------6-6-4-4----4--------4-------4-----6-----6-6-|
D|-6-4--------------4--------4-------4-----------------|
A|-----------------------------------------------------|
E|-----------------------------------------------------|

E|------------------------------------------------------|
B|-----4-4-------5-5-----4-4------------4-------4-------|
G|---4-----6-4---------------6-6----4-4---6-------6-----|
D|-4-----------6-----6-4--------------------4-4-----4-4-|
A|------------------------------------------------------|
E|------------------------------------------------------|

E|-----------------------------------------------|
B|-4---6-6-4-6-7---4-------4-------4---6-6-4-6-7-|
G|---6---------------6-------6-------6-----------|
D|---------------------4-4-----4-4---------------|
A|-----------------------------------------------|
E|-----------------------------------------------|

E|--------------------------------------------------------------|
B|-----9-9------9-9-----9-9----9-10-----------9-9---------10-10-|
G|---9--------9-------9-----11------11-11---9-----11-9----------|
D|-9--------9-------9---------------------9------------11-------|
A|--------------------------------------------------------------|
E|--------------------------------------------------------------|

E|----------------------|
B|------9-9-------------|
G|----------11-11-9-9---|
D|-11-9---------------9-|
A|----------------------|
E|----------------------|
            

comments powered by Disqus
↑ Back to top | Muse Tabs for Burning Bridges. Lyrics for acoustic guitar and electric guitar. Tablatures and chords are parodies/interpretations of the original songs. You may use it for private study, scholarship, research or language learning purposes only