» » »

Burning Bridges Tabs (ver.2)

Artists:  A B C D E F G H I J K L M N O P Q R S T U V W X Y Z # 

Burning Bridges Tabs (ver.2)

Muse
Rating:
0/5 (0 votes)

Hard to play? Try these video lessons and learn fast.
                -------------------------------------------------------------------------------
                             Burning Bridges - Muse
-------------------------------------------------------------------------------

Tuning: EADGBE - Standard

Enjoy!

 
  PM------------------------------------|
E|-----------------------------------------|
B|-----------------------------------------|
G|-----8-8------8-8------8-8----8-9--------|
D|---9--------9--------9-----11-----11-11--|
A|-9--------9--------9---------------------|
E|-----------------------------------------|
      
  PM------------------------------------|                                 
e|-----------------------------------------|
B|-----------------------------------------|
G|-----8-8---------9-9------8-8------------|
D|---9-----11-9-----------------11-11-9-9--|
A|-9------------11-----11-9----------------|
E|-----------------------------------------|

  PM------------------------------------|
E|-----------------------------------------|
B|-----------------------------------------|
G|-----8-8------8-8------8-8----8-9--------|
D|---9--------9--------9-----11-----11-11--|
A|-9--------9--------9---------------------|
E|-----------------------------------------|
               
  PM------------------------------------|                             
e|-----------------------------------------|
B|-----------------------------------------|
G|-----8-8---------9-9------8-8------------|
D|---9-----11-9-----------------11-11-9-9--|
A|-9------------11-----11-9----------------|
E|-----------------------------------------|

  PM---------------------|
E|-----------------------------------------|
B|-----------------------------------------|
G|-8---------8--------8----10-10p8-10-11~--|    
D|---11--------11-------11-----------------|
A|------9-9-------9-9----------------------|
E|-----------------------------------------|

  PM---------------------|
E|-----------------------------------------|
B|-----------------------------------------|
G|-8---------8--------8----10-10p8-10-11~--|    
D|---11--------11-------11-----------------|   
A|------9-9-------9-9----------------------|
E|-----------------------------------------|

     PM-----------|
e|----------------------------------|
B|----------------------------------|
G|---11-11-11-9-9-9-8h9p8-----------|
D|------------------------11--------|
A|----------------------------------|
E|----------------------------------|
     [  3  ]  [ 3 ] [ 3 ]

   PM-----------------------------------|
E|----------------------------------------|
B|----------------------------------------|
G|-8-----------9-9-------8-8--------------|    
D|---11-9-8------------------11-11-9-9-11-|   
A|----------11------11-9------------------|
E|----------------------------------------|

   PM--------------------------------|
E|---------------------------------------|
B|---------------------------------------|
G|-8-----------9-9-------8-8-------------|    
D|---11-9-8------------------11-11-9-9-0-|   
A|----------11------11-9-----------------|
E|---------------------------------------|
 

E|--------------------------------------|
B|--------------------------------------|
G|-8------------------------------------|    
D|-9------------------------------------|
A|-9------------------------------------|
E|-7------------------------------------|



| /  slide up
| \  slide down
| h  hammer-on
| p  pull-off
| ~  vibrato
| +  harmonic
| x  Mute note
| PM Palm Mute
===============================================================================
            
Hard to play? Try these video lessons and learn fast. | Correct




comments powered by Disqus
↑ Back to top | Tablatures and chords are parodies/interpretations of the original songs. You may use it for private study, scholarship, research or language learning purposes only