>
 >
Apocalypse Please

Apocalypse Please Guitar Tabs

Muse - Apocalypse Please chords, tabs, tablatures, lyrics

Guitar lessons | Add/correct | Request | Top 50 tabs Artists:  A B C D E F G H I J K L M N O P Q R S T U V W X Y Z 0-9

Apocalypse Please Guitar Tabs – Muse

CD, Sheet music, Poster

Do you like Apocalypse Please? Share with your friends now
Bass TabsBass Tabs v2Bass Tabs v3ChordsChords v2Chords v3TabsTabs v2Tabs v3Ukulele
Muse - Apocalypse Please
Album – Absolution
Tuning: Dropped C# (or standard if you don`t play the bassnotes)

If you also play the intro then the higher notes will have more... impact, shall I say it.

Intro:
e |-----------------|
B |-----------------|
G |-----------------|
D |-----------------|
A |-4-4---4---4---4-| repeat 12 times or something.
C#|-0-0---0---0---0-|

On the CD you can hear at the end of “Intro” someone saying something. (..., it`s time)

And then:

F#m                C#
|-2---2---2---2---|-----------------|
|-2---2---2---2---|-6---6---6---6---|
|-2---2---2---2---|-6---6---6---6---|
|-4---------------|-6---6---6---6---|
|-4-4---4---4---4-|-4-4---4---4---4-|
|-0-0---0---0---0-|-0-0---0---0---0-| x2

F#m                C#
|-2---2---2---2---|-----------------|
|-2---2---2---2---|-6---6---6---6---|
|-2---2---2---2---|-6---6---6---6---|
|-4---------------|-6---6---6---6---|
|-4-4---4---4---4-|-4-4---4---4---4-|
|-0-0---0---0---0-|-0-0---0---0---0-|
1. Declare this an     emergency. Come on and
spread a sense of urgency.        And pull us
2. It`s time we saw a miracle.    Come on it`s
time for something biblical       And pull us
3. Proclaim eternal victory.      Come on and
change the course of history.     And pull us

F#m                C#
|-----------------|-----------------|
|-7---7---7---7---|-6---6---6---6---|
|-6---6---6---6---|-6---6---6---6---|
|-7---7---7---7---|-6---6---6---6---|
|-x---------------|-4-4---4---4---4-|
|-5-5---5---5---5-|-0-0---0---0---0-|
1. trough.                      And pull us
   trough.                      And this is the
2. trough.                      And pull us
   trough.                      And this is the
3. trough.                      And pull us
   trough.                      And this is the

F#m                F#
|-----------------|-----------------|
|-7---7---7---7---|-7---7---7---7---|
|-6---6---6---6---|-7---7---7---7---|
|-7---7---7---7---|-7---7---7---7---|
|-x---------------|-x---------------|
|-5-5---5---5---5-|-5-5---5---5---5-|
1. End                 Yeah,     this is the
2. End                 Yeah,     this is the
3. End                 Yeah,     this is the

E                  A
|-----------------|-----------------|
|-----------------|-5---5---5---5---|
|-4---4---5---5---|-6---6---6---6---|
|-6---6---6---6---|-7---7---7---7---|
|-7---7---7---7---|-x---------------|
|-7-7---7---7---7-|-8-8---8---8---8-|
1. End                          of the
2. End                          of the
3. End                          of the

C#5                             A
|------------------------------|------------------------------|
|------------------------------|---2-2---2-2--2---2-2---2-2---|
|---6-6---6-6--6---6-6---6-6---|---2-2---2-2--2---2-2---2-2---|
|---6-6---6-6--6---6-6---6-6---|---2-2---2-2--2---2-2---2-2---|
|-4-----4--------4-----4-------|-0-----0--------0-----0-------|
|-0-----0--------0-----0-------|------------------------------|
1. world
2. world
3. world

C#5
|------------------------------|
|------------------------------|
|---6-6---6-6--6---6-6---6-6---|
|---6-6---6-6--6---6-6---6-6---|
|-4-----4--------4-----4-------|
|-0-----0--------0-----0-------| x2


Chorus/Break/Interlude/arpeggio section with the high vocals:

The arpeggio`s were too hard so I had to change it. Twice as fast as verse (Declare this 
emergency, it`s time we saw...)

Do everything a whole bar, the upper and bottom note must be picked 4 times.
|---------|---------|---------|---------|---------|---------|
|---------|---------|---------|---------|---------|---------|
|-6-------|-6-------|-6-------|-6-------|-6-------|-6-------|
|---6---6-|---6---6-|---7---7-|---7---7-|---6---6-|---6---6-|
|-----9---|-----8---|-----9---|-----9---|-----9---|-----8---|
|---------|---------|---------|---------|---------|---------|

|---------|---------|---------|---------|  
|-6-------|-7-------|-7-------|-5-------|  
|---7---7-|---7---7-|---9---9-|---7---7-|  
|-----9---|-----9---|-----9---|-----9---|
|---------|---------|---------|---------| 

You can also pick the notes a string higher, if you want
that version send me a message.

Outro/solo (my best attempt) Major key is F#m/C#m if you want to improvise.

C#             F#m   add9 F#m
|-------------|----2--4---2--|
|----------6--|----2--2---2--|
|----------6--|----2--2---2--|
|-6-----6--6--|--------------|
|-4--4--4-----|-4------------|
|----0--------|-0------------| x2

F#m        D    Bm7   Bm  Bm7
|-2--------10--|----2--2--2--|
|-2-----7--10--|----3--3--3--|
|-2-----6--11--|----2--4--2--|
|----0--7------|-4-----------|
|--------------|-2-----------|
|--------------|-------------|

C#             F#5
|-------------|----------|
|----------6--|----------|
|----------6--|----------|
|-6-----6--6--|-4--------|
|-4--4--4-----|-4--------|
|----0--------|-5--------|





Comments


Popular Muse tabs & chords
City Of Delusion 3 Bass Tabs
Fury Bass Tabs
Unintented Bass Tabs
Dead Star 4 Tabs
Exo-politics 5 Tabs
Hysteria 5 Tabs
Over Due Tabs
Time Is Running Out Tabs
Blackout Ukulele
Hysteria Ukulele


Song lyrics



↑ Back to top | Tablatures and chords are parodies/interpretations of the original songs. You may use it for private study, scholarship, research or language learning purposes only
© 2014 AZChords.com Contact us | Privacy policy | DMCA | Add/correct tabs | Request tabs | Top 50 tabs