» » »

Muse, Apocalypse Please Bass tabs (ver.1)

Artists:  A B C D E F G H I J K L M N O P Q R S T U V W X Y Z # 

Apocalypse Please Bass tabs (ver.1)

Muse Tabs
 Rating:
4/5 (8 votes)
Apocalypse Please lessons Tabs too difficult? Try these video lessons and learn fast
1
                Band: Muse

Notes:

-> Let all verse / bridge / outro notes ring. The song is laid out below exactly as it's played.

-> The tabs already on this site aren't perfect. I tabbed this out a couple of years ago 
never submitted it. I watched the Pinkpop '04 video of this song and Chris plays Verse 
as below and goes up high on verse 2, unlike what the other tabs say.

-> In 'Verse 2' Chris goes up to the 11th and 12th fret on the A string and not the 6th 
7th fret on the D string. I just put them there to make the tab look neater.


No bass for first eight bars

_______
SLIDE
_______

E|-14/2-|

________
VERSE 1
________
G|---------------------------------|
D|---------------------------------|
A|---------44-4-4-4--(x2)----------|
E|-22-2-2-2------------------------|

_______
VERSE 2
_______

G|-------------------------------------------------------------------|
D|---------------------------------6666666666666666-7777777777777777-|
A|-99999999999999999999999999999999----------------------------------|
E|-------------------------------------------------------------------|

G|-------------------------------------------------------------------|
D|-------------------------------------------------------------------|
A|-44444444444444----------------44444444444444444444444444444444----|
E|---------------5555555555555555------------------------------------|


*  No bass for 6 bars..  *

E|-14/2-|

________
VERSE 1
________
G|---------------------------|
D|---------------------------|
A|---------44-4-4-4--(x2)----|
E|-22-2-2-2------------------|

_________
VERSE 2
_________

G|-------------------------------------------------------------------|
D|---------------------------------6666666666666666-7777777777777777-|
A|-99999999999999999999999999999999----------------------------------|
E|-------------------------------------------------------------------|

G|-------------------------------------------------------------------|
D|-------------------------------------------------------------------|
A|-44444444444444----------------44444444444444444444444444444444----|
E|---------------5555555555555555------------------------------------|
_____________
BRIDGE
_____________
G|---66--66--66--66--66--66--66--66--1111--1111--1111--1111--77--77--77--77--66--66--66--66--66--66--66--66-|
D|----------------------------------------------------------------------------------------------------------|
A|-44--44--44--44--44--44--44--44--99----99----99----99----55--55--55--55--44--44--44--44--44--44--44--44---|
E|----------------------------------------------------------------------------------------------------------|

G|---1111--1111--1111--1111--77--77--77--77--44--44--44--44--55--55--55--55-|
D|--------------------------------------------------------------------------|
A|-99----99----99----99----55--55--55--55--22--22--22--22--33--33--33--33---|
E|--------------------------------------------------------------------------|


No bass for 6 bars ..


E|-14/2-|
________
VERSE 1
________
G|---------------------------------|
D|---------------------------------|
A|---------44-4-4-4--(x2)----------|
E|-22-2-2-2------------------------|

________
VERSE 2
________

G|-------------------------------------------------------------------|
D|---------------------------------6666666666666666-7777777777777777-|
A|-99999999999999999999999999999999----------------------------------|
E|-------------------------------------------------------------------|

G|-------------------------------------------------------------------|
D|-------------------------------------------------------------------|
A|-44444444444444----------------44444444444444444444444444444444----|
E|---------------5555555555555555------------------------------------|

_____________
BRIDGE
_____________
G|---66--66--66--66--66--66--66--66--1111--1111--1111--1111--77--77--77--77--66--66--66--66--66--66--66--66-|
D|----------------------------------------------------------------------------------------------------------|
A|-44--44--44--44--44--44--44--44--99----99----99----99----55--55--55--55--44--44--44--44--44--44--44--44---|
E|----------------------------------------------------------------------------------------------------------|

G|---1111--1111--1111--1111--77--77--77--77--44--44--44--44--55--55--55--55-|
D|--------------------------------------------------------------------------|
A|-99----99----99----99----55--55--55--55--22--22--22--22--33--33--33--33---|
E|--------------------------------------------------------------------------|

_______
OUTRO (let these notes ring)
_______
G|----------------------------------------------------------------------|
D|----------------------------------------------------------------------|
A|-4~~~~~~~--------4~~~~~~~~~---------5~~~~~~~~2~~~~~~~~4~~~~~~---------|
E|---------2~~~~~~~----------2~~~~~~~~-------------------------2~~~~~~~~|
            
Submit corrections

comments powered by Disqus
↑ Back to top | Muse Bass for Apocalypse Please. Lyrics for acoustic guitar and electric guitar. 1 Tablatures and chords are parodies/interpretations of the original songs. You may use it for private study, scholarship, research or language learning purposes only