» » »

A Crying Shame Tabs (ver.3)

Artists:  A B C D E F G H I J K L M N O P Q R S T U V W X Y Z # 

A Crying Shame Tabs (ver.3)

Muse
Rating:
3/5 (1 vote)
Tabs too difficult? Try these video lessons and learn fast.
                Hey everyone, I checked out the tabs on this site and the only half decent one was on 
pro, so i thought i'd do one for normal tab. Most of this is someone elses work, so i do 
take full credit for it. But, there are parts which are my own work.

Please Rate and Comment...Enjoy!

Intro

e|-------2-----|
b|---3---2-----|
g|---4---2---9-|
d|---4---4---9-|
a|---2---4---7-|
E|-------2-----|

Main Riff - Tremolo picking all the way for this

e|--------------------------------------------------------------------|
b|--3-0--/8-8-8-8--7-7-7-7--6-6-6-6--5-5-5-5--3-0--/8-8-8-8--7-7-7-7--|
g|--------------------------------------------------------------------|
d|--------------------------------------------------------------------|
a|--------------------------------------------------------------------|
E|--------------------------------------------------------------------|

e|------------------------------------------------------------|
b|--6-6-6-6--5-5-5-5--2----/8-8-8-8--7-7-7-7--6-6-6-6--5-5-5-5|
g|----------------------3-------------------------------------|
d|------------------------------------------------------------|
a|------------------------------------------------------------|
E|------------------------------------------------------------|

e|------------------------------------------------|
b|--3-0--/7-7-7-7--8-8-8-8--10-10-10-10--8-8--7-7-|
g|------------------------------------------------|   Repeat Twice
d|------------------------------------------------|
a|------------------------------------------------|
E|------------------------------------------------|

e|--------------------|
b|--------------------|
g|--------------------|
d|--------------------|  Play 4 times
a|-------------5------|
E|--7-7--5-6-7---7-5--|

Verse - Play Twice

e|-------------------------------------|-----------------------------------|
b|-------------------------------------|-----------------------------------|
g|-------------------------------------|-----------------------------------|
d|-------------------------------------|-----------------------------------|
a|-------------5------------------5----|-7-7--5-6-7/8\7-5-7-7-5-6-7-7/8\7-5|
E|-7-7--5-6-7----7-5--7-7--5-6-7----7-5|-----------------------------------|

Pre-Chorus

The pre-chorus is quite difficult to play, so i thought i'd tab my easy version. These 
just the chords that Matt plays.

e|------------|
b|------------|
g|-7-----4----|
d|-7--5--4--5-|  The timing is easy to figure out.
a|-5--5--2--5-|
E|----3-----3-|

Chorus

e|-------------------| You'll have to trust me on the second chord, it sounds
b|-------------------| ok when playing along to the cd.
g|--7--7-------------|
d|--7--x--9--7--8----| Strumming pattern and timing should be easy once you
a|--5--x--9--7--8----| listen to the track. Listen carefully to know when to
E|-----7--7--5--6----| finish on the B flat.

Bridge

e|-------------------------------------------------------|
b|---------------------------------------7--7--7--7--7--7|
g|---------------------------------------9^-9^-9^-9^-9^-9|
d|-------------------------------------------------------|
a|--3-3-3-3-3-3-3-3--------------------------------------|
E|--(play the harmonics on the 3rd fret)-----------------|

Verse
Pre-Chorus
Chorus

Outro

e|--------------------------------------------------------------------|
b|--3-0--/8-8-8-8--7-7-7-7--6-6-6-6--5-5-5-5--3-0--/8-8-8-8--7-7-7-7--|
g|--------------------------------------------------------------------|
d|--------------------------------------------------------------------|
a|--------------------------------------------------------------------|
E|--------------------------------------------------------------------|

e|------------------------------------------------------------|
b|--6-6-6-6--5-5-5-5--2----/8-8-8-8--7-7-7-7--6-6-6-6--5-5-5-5|
g|----------------------3-------------------------------------|
d|------------------------------------------------------------|
a|------------------------------------------------------------|
E|------------------------------------------------------------|

e|------------------------------------------------|
b|--3-0--/7-7-7-7--8-8-8-8--10-10-10-10--8-8--7-7-|
g|------------------------------------------------|
d|------------------------------------------------|
a|------------------------------------------------|
E|------------------------------------------------|

e|--------------------------------------------------------------------|
b|--3-0--/8-8-8-8--7-7-7-7--6-6-6-6--5-5-5-5--3-0--/8-8-8-8--7-7-7-7--|
g|--------------------------------------------------------------------|
d|--------------------------------------------------------------------|
a|--------------------------------------------------------------------|
E|--------------------------------------------------------------------|

e|------------------------------------------------------------|
b|--6-6-6-6--5-5-5-5--2----/8-8-8-8--7-7-7-7--6-6-6-6--5-5-5-5|
g|----------------------3-------------------------------------|
d|------------------------------------------------------------|
a|------------------------------------------------------------|
E|------------------------------------------------------------|

e|-------------------------------------------------------|
b|--3-0--/7-7-7-7--8-8-8-8--10-10-10-10--8-8--7-7--------|
g|--------------------------------------------------4-4--|
d|--------------------------------------------------4-4--|
a|--------------------------------------------------2-2--|
E|-------------------------------------------------------|
            
Tabs too difficult? Try these video lessons and learn fast.


comments powered by Disqus
↑ Back to top | Tablatures and chords are parodies/interpretations of the original songs. You may use it for private study, scholarship, research or language learning purposes only