» » »

Muse, A Crying Shame Bass tabs (ver.1)

Artists:  A B C D E F G H I J K L M N O P Q R S T U V W X Y Z # 

A Crying Shame Bass tabs (ver.1)

Muse Tabs
 Rating:
3.4/5 (9 votes)
A Crying Shame lessons Tabs too difficult? Try these video lessons and learn fast
                Instrument: Bass Guitar
Tuning: Standard EADG
(06 January 2008)


Enjoy!


[INTRO]
G|----------------|----------------|----------------|----------------|
D|------4-0-2-3-4-|------4-0-2-3-4-|----------------|---------2-2-0--|
A|2-2-------------|2-2-------------|--------0-0-2-4-|-------2-------4|
E|----------------|----------------|2-2---2---------|0-0-------------|

+guitar riff+
G|----------------|----------------|----------------|----------------|
D|------4-0-2-3-4-|------4-0-2-3-4-|----------------|---------2-2-0--|
A|2-2-------------|2-2-------------|--------0-0-2-4-|-------2-------4| x2
E|----------------|----------------|2-2---2---------|0-0-------------|


[VERSE]
G|----------------|----------------|----------------|----------------|
D|----------------|----------------|----------------|----------------|
A|----------------|----------------|----------------|----------------|
E|----------------|----------------|----------------|----------------|

  "Too late!....  ... Yeah baby it's too late...
G|----------------|----------------|----------------|----------------|
D|----------------|----------------|----------5-----|----------5-----|
A|----------5-----|----------5---5-|7-7-5-6-7---7-5-|7-7-5-6-7---7-5-|
E|7-7-5-6-7---7-5-|7-7-5-6-7---7---|----------------|----------------|
  *see note at end of document

G|----------------|----------------|----------------|----------------|
D|----------------|----------------|----------5-----|----------5-----|
A|----------5-----|----------5---5-|7-7-5-6-7---7-5-|7-7-5-6-7---7-5-|
E|7-7-5-6-7---7-5-|7-7-5-6-7---7---|----------------|----------------|

G|----------------|----------------|----------------|----------------|
D|----------------|----------------|----------------|----------------|
A|----------------|----------------|----------------|----------------|
E|5-5-5-5-5-5-5-5-|5-5-5-5-5-5-5-5-|3-3-3-3-3-3-3-3-|3-3-3-3-3-3-3-3-|

                                             "... and it's a crying...
G|----------------|----------------|----------------|----------------|
D|----------------|----------------|----------------|----------------|
A|----------------|----------------|----------------|----------------|
E|7-7-7-7-7-7-7-7-|7-7-7-7-7-7-7-7-|3-3-3-3-3-3-3-3-|3-3-3-3-3-3-3-3-|


[CHORUS]
...shame!"
G|----------------|----------------|----------------|----------------|
D|----------------|----------------|----------------|----------------|
A|5-5-5-5-5-5-5-5-|5-5-5-5-5-5-5-5-|----------------|----------------|
E|----------------|----------------|7-7-7-7-7-7-7-7-|7-7-7-7-7-7-7-7-|

G|----------------|----------------|----------------|----------------|
D|----------------|----------------|----------------|7-7-7-7-7-------|
A|----------------|----------------|----------------|----------------|
E|7-7-7-7-7-7-7-7-|7-7-7-7-7-7-7-7-|5-5-5-5-5-5-5-5-|-----------6----|


G|----------------|----------------|----------------|----------------|
D|------4-0-2-3-4-|------4-0-2-3-4-|----------------|---------2-2-0--|
A|2-2-------------|2-2-------------|--------0-0-2-4-|-------2-------4| x2
E|----------------|----------------|2-2---2---------|0-0-------------|


G|----------------|----------------|----------------|----------------|
D|----------------|----------------|----------------|----------------|
A|----------5-----|----------5-----|----------5-----|----------5-----|
E|7-7-5-6-7---7-5-|7-7-5-6-7---7-5-|7-7-5-6-7---7-5-|7-7-5-6-7---7-5-|

[VERSE]
G|----------------|----------------|----------------|----------------|
D|----------------|----------------|----------5-----|----------5-----|
A|----------5-----|----------5---5-|7-7-5-6-7---7-5-|7-7-5-6-7---7-5-| x2
E|7-7-5-6-7---7-5-|7-7-5-6-7---7---|----------------|----------------|


G|----------------|----------------|----------------|----------------|
D|----------------|----------------|----------------|----------------|
A|----------------|----------------|----------------|----------------|
E|5-5-5-5-5-5-5-5-|5-5-5-5-5-5-5-5-|3-3-3-3-3-3-3-3-|3-3-3-3-3-3-3-3-|

                                             "... and it's a crying...
G|----------------|----------------|----------------|----------------|
D|----------------|----------------|----------------|----------------|
A|----------------|----------------|----------------|----------------|
E|7-7-7-7-7-7-7-7-|7-7-7-7-7-7-7-7-|3-3-3-3-3-3-3-3-|3-3-3-3-3-3-3-3-|

                                                                       _
G|----------------|----------------|----------------|----------------|  |
D|----------------|----------------|----------------|----------------|  |
A|5-5-5-5-5-5-5-5-|5-5-5-5-5-5-5-5-|----------------|----------------|  |
E|----------------|----------------|7-7-7-7-7-7-7-7-|7-7-7-7-7-7-7-7-|  |
                                                                        > x2
G|----------------|----------------|----------------|----------------|  |
D|----------------|----------------|----------------|7-7-7-7-7-------|  |
A|----------------|----------------|----------------|----------------|  |
E|7-7-7-7-7-7-7-7-|7-7-7-7-7-7-7-7-|5-5-5-5-5-5-5-5-|-----------6----| _|


G|----------------|----------------|----------------|----------------|
D|------4-0-2-3-4-|------4-0-2-3-4-|----------------|---------2-2-0--|
A|2-2-------------|2-2-------------|--------0-0-2-4-|-------2-------4| x2
E|----------------|----------------|2-2---2---------|0-0-------------|


G|----------------|
D|----------------|
A|2-2-------------|
E|----------------|

   END


*You might want to play the bit before the chorus an octave higher. If so, just start 
pattern on fret 14 on the A string.

e.g.

G|------------------------|
D|---------------12-------|
A|14-14-12-13-14----14-12-|
E|------------------------|
            
Submit corrections

comments powered by Disqus
↑ Back to top | Muse Bass for A Crying Shame. Lyrics for acoustic guitar and electric guitar. Tablatures and chords are parodies/interpretations of the original songs. You may use it for private study, scholarship, research or language learning purposes only