>
 >
Prod 2

Prod 2 Guitar Tabs

Mudvayne - Prod 2 chords, tabs, tablatures, lyrics

Guitar lessons | Add/correct | Request | Top 50 tabs Artists:  A B C D E F G H I J K L M N O P Q R S T U V W X Y Z 0-9

Prod 2 Guitar Tabs – Mudvayne

CD, Sheet music, Poster

Do you like Prod 2? Share with your friends now
Bass TabsBass Tabs v2TabsTabs v2Tabs v3Tabs v4
Tuning: Drop D, Down 1 1/2 Steps (B,F#,B,E,G#,C#)
^(n) - bend 1/2 step and release

VERSE: (* - play 1st time only)
|---------------------|
|---------------------|
|---------------------|
|-*2*-XX-X2-XX-X2-XX2-|
|-*2*-XX-X2-XX-X2-XX2-|
|-*2*-XX-X2-XX-X2-XX2-|

CHORUS:
|------------------------|
|------------------------|
|------------------------|
|-9-10--9-10--9-10--9-10-|
|-9-10--9-10--9-10--9-10-|
|-9-10--9-10--9-10--9-10-|

BRIDGE:
|-------------------------------------------|
|-------------------------------------------|
|---4-4-4h5p4---4-4-4h5p4---4-4-4h5p4---4---|
|-7-----------7-----------7-----------7---5-|
|-------------------------------------------|
|-------------------------------------------|


BRIDGE 2:
|---------------------------------------------------|
|---------------------------------------------------|
|---------------------------------------------------|
|-7-9-9-9/10\9--7-9-9-9/10\9--7-9-9-9/10\9--7--9--5-|
|-5-7-7-7/8 \7--5-7-7-7/8 \7--5-7-7-7/8 \7--5--7--3-|
|---------------------------------------------------|

INTERLUDE:
|---------------------------------|
|---------------------------------|
|---------------------------------|
|-------------------------------3-|
|---------------------------------|
|-2--2-2--2-2^(2)-2-2^(2)-2-2-2---|

INTERLUDE 2:
|---------------------------|
|---------------------------|
|---------------------5-5-5-|
|-2--2-2--2-2--2-2--2-3-3-3-|
|-2--2-2--2-2--2-2--2-3-3-3-|
|-2--2-2--2-2--2-2--2-3-3-3-|

FILL:
|-----------------|
|-----------------|
|-5---5---5---5-5-|
|-3---3---3---3-3-|
|-----------------|
|-----------------|

INTERLUDE 3:
|----------------------------------------------------------------|
|----------------------------------------------------------------|
|-99-9---/17-16-14-14h16p14-13-14--14-13-7-/9-/17-16-14-14h16p14-|
|----------------------------------------------------------------|
|----------------------------------------------------------------|
|----------------------------------------------------------------|

|-----------------------------------|
|-----------------------------------|
|-/17-17-17-16-14-14----12---11---9-|
|--------------------10----9----7---|
|-----------------------------------|
|-----------------------------------|

INTERLUDE 4: (speed varies)
|-----------------------|
|-----------------------|
|-----------------------|
|-2-2--9-5-0-2-2--9-5-0-|
|-2-2--9-5-0-2-2--9-5-0-|
|-2-2--9-5-0-2-2--9-5-0-|

FILL 2:
|---------------|
|---------------|
|---------------|
|-9---5---0---2-|
|-9---5---0---2-|
|-9---5---0---2-|





Comments


Popular Mudvayne tabs & chords
Dull Boy 4 Bass Tabs
Kill The Thrill Drum Tabs
Central Deposal Tabs
Digg 1 Tabs
Do What You Do Intro 1 Tabs
Fucking Determined Tabs
Happy Tabs
Mercy Severity 4 Tabs
Silenced-The End Of All Things To Come Tabs
Forget To Remember Ukulele


Song lyrics



↑ Back to top | Tablatures and chords are parodies/interpretations of the original songs. You may use it for private study, scholarship, research or language learning purposes only
© 2014 AZChords.com Contact us | Privacy policy | DMCA | Add/correct tabs | Request tabs | Top 50 tabs