» » »

Mudvayne, Prod Tabs (ver.2)

Artists:  A B C D E F G H I J K L M N O P Q R S T U V W X Y Z # 

Prod Tabs (ver.2)

Mudvayne Tabs
Rating:
0/5 (0 votes)
Prod lessons Tabs too difficult? Try these video lessons and learn fast
                Mudvayne
Prod
100% correct


main verse 

----------------------

----------------------

----------------------

----------------------

-5xx-5xx-5xx-5-5------

-5xx-5xx-5xx-5-5------



chorus 

----------------------

----------------------

----------------------

----------------------

-55---55--55----55----

-55---55--55----55----



----------------------

----------------------

----------------------

777777----------------

555555----------------

----------------------



----------------------

----------------------

----------------------

----------77----------

-55555555577----------

-55555555555----------



----------------------

----------------------

----------------------

----------------------

----------------------

-20202057--20202057--20202057



----------------------

----------------------

----------------------

----------------------

55-9--55-9--55-9---------------

55-9--55-9--55-9---------------



main 

----------------------

----------------------

----------------------

----------------------

-5xx-5xx-5xx-5-5------

-5xx-5xx-5xx-5-5------



chorus 

----------------------

----------------------

----------------------

----------------------

-55---55--55----55----

-55---55--55----55----



----------------------

----------------------

----------------------

----------------------

----------------------

----------------------

Enjoy!!!!!!!!!!!!!!!!!!!!!!!!!!!!!!!!!!!!!!1
            
Submit corrections

comments powered by Disqus
↑ Back to top | Mudvayne Tabs for Prod. Lyrics for acoustic guitar and electric guitar. Tablatures and chords are parodies/interpretations of the original songs. You may use it for private study, scholarship, research or language learning purposes only