» » »

Mudvayne, Know Forever Tabs (ver.3)

Artists:  A B C D E F G H I J K L M N O P Q R S T U V W X Y Z # 

Know Forever Tabs (ver.3)

Mudvayne Tabs
 Rating:
4/5 (4 votes)
Know Forever lessons Tabs too difficult? Try these video lessons and learn fast
                Mudvayne
(k)Now F(orever)
100% correct

----------------------

----------------------

----------------------

----------------------

--------------------55--

-000021-0021-000021----



----------------------

----------------------

----------------------

----------------------

---------------------55-

-000021--0021--000021-----------------



----------------------

----------------------

------------------9898----

----------------------

----------------------

020202020202020-------



----------------------

----------------------

----------------------

----------------------

----------------------

-000020000------------



----------------------

----------------------

----------------------

----------------------

----------------------

0001210---------------



----------------------

----------------------

----------------------

----------------------

--------55-------55-------55

-1111111--1111111--1111111



----------------------

----------------------

----------------------

55-333-77-333---------

55-333-77-333---------

----------------------



----------------------

----------------------

----------------------

----------------------

----------------------

-00000035000000003500000350000000035



----------------------

----------------------

----------------------

----------------------

----------------------

-01001001011001100101-

Enjoy!!!!!!!!!!!!!!!!!!!!!!!!!!!!!!!!!!!!!!!!!!!!!!!!
            
Submit corrections

comments powered by Disqus
↑ Back to top | Mudvayne Tabs for Know Forever. Lyrics for acoustic guitar and electric guitar. Tablatures and chords are parodies/interpretations of the original songs. You may use it for private study, scholarship, research or language learning purposes only