>
 >
Know Forever 1

Know Forever 1 Guitar Tabs

Mudvayne - Know Forever 1 chords, tabs, tablatures, lyrics

Guitar lessons | Add/correct | Request | Top 50 tabs Artists:  A B C D E F G H I J K L M N O P Q R S T U V W X Y Z 0-9

Know Forever 1 Guitar Tabs – Mudvayne

CD, Sheet music, Poster

Do you like Know Forever 1? Share with your friends now
Bass TabsBass Tabs v2TabsTabs v2Tabs v3
Tuning: 1 1/2 Steps down Drop D (B F# B E G# C#)
Intro
|-------------|
|-------------|
|-------------|
|-------------|
|---------2---|
|-3-3-3-3---3-|

|--------------------------|
|--------------------------|
|--------------------------|
|--------------------------|
|---------2------------2---|
|-3-3-3-3---3--3-3-3-3---3-| x3

|--------------------------------|
|--------------------------------|
|--------------------------7-7-7-|
|--------------------------6-6-6-|
|---------2------------2---------|
|-3-3-3-3---3--3-3-3-3---3-------|

|---------------------------------------------|
|---------------------------------------------|
|---------------7*-7*--12*-12*----------------|
|------------------------------7*-7*--12*-12*-|
|---------2-----------------------------------|
|-3-3-3-3---3---------------------------------|
                N.H w/tremelo................

|--------------------------------|
|--------------------------------|
|--------------------------7-7-7-|
|--------------------------6-6-6-|
|---------2------------2---------|
|-3-3-3-3---3--3-3-3-3---3-------|


|--------------------------------|
|--------------------------------|
|--------------------------------|
|----------------5/6-5/6-5/6-5/6-|
|---------2----------------------|
|-3-3-3-3---3--------------------|

|--------------------------------|
|--------------------------------|
|--------------------------7-7-7-|
|--------------------------6-6-6-|
|---------2------------2---------|
|-3-3-3-3---3--3-3-3-3---3-------|

|---------------------------------------------|
|---------------------------------------------|
|---------------7*-7*--12*-12*----------------|
|------------------------------7*-7*--12*-12*-|
|---------2-----------------------------------|
|-3-3-3-3---3---------------------------------|
                N.H w/tremelo................

|--------------------------------|
|--------------------------------|
|--------------------------7-7-7-|
|--------------------------6-6-6-|
|---------2------------2---------|
|-3-3-3-3---3--3-3-3-3---3-------|


|--------------------------------|
|--------------------------------|
|--------------------------------|
|----------------5/6-5/6-5/6-5/6-|
|---------2----------------------|
|-3-3-3-3---3--------------------|

Chorus 

|--------------------------|
|--------------------------|
|-5------------------------|
|-5-5-0-5-6-0-6-5-0-0--0-0-|
|-3-5-0-5-6-0-6-5-0-0--0-0-|
|---5-0-5-6-0-6-5-0-0--0-0-|

|------------------------|---------|
|------------------------|---------|
|-5----------------------|-4-4-4-4-|
|-5-5-0-5-6-0-6-5-0-0--0-|-x-x-x-x-|
|-3-5-0-5-6-0-6-5-0-0--0-|-2-2-2-2-|
|---5-0-5-6-0-6-5-0-0--0-|---------|

|--------------------------|
|--------------------------|
|-5------------------------|
|-5-5-0-5-6-0-6-5-0-0--0-0-|
|-3-5-0-5-6-0-6-5-0-0--0-0-|
|---5-0-5-6-0-6-5-0-0--0-0-|

|------------------------|---------|
|------------------------|---------|
|-5----------------------|-4-4-4-4-|
|-5-5-0-5-6-0-6-5-0-0--0-|-x-x-x-x-|
|-3-5-0-5-6-0-6-5-0-0--0-|-2-2-2-2-|
|---5-0-5-6-0-6-5-0-0--0-|---------|

|-----------------|
|-----------------|
|-----------------|
|-----------------|
|-3---------------|
|---0-0--0--6p0-0-|

Verse

|--------------------------------------------------------------------|
|-------------------------------------------6-6---------6-6----------|
|-------------------------------------------4-4---------4-4----------|
|--------------------------------------------------------------------|
|-3/5-5-5-5-5/6-6-6-6\3-3-3/5\3\2-2-2-2-2-2-----2-2-2-2-----2-2-2-2/-|
|--------------------------------------------------------------------| x4
  p.m......................................     .......     .......

|----------------------------------------------------------|
|----------------------------------------------------------|
|-------------------------------------------4------------4-|
|-----------------------------------3-3-3-3---3--3-3-3-3---|
|-3/5-5-5-5-5/6-6-6-6\3-3-3/5\3\2-2------------------------|
|----------------------------------------------------------|
  p.m......................................................

|--------------------------------------------------------------------|
|-------------------------------------------6-6---------6-6----------|
|-------------------------------------------4-4---------4-4----------|
|--------------------------------------------------------------------|
|-3/5-5-5-5-5/6-6-6-6\3-3-3/5\3\2-2-2-2-2-2-----2-2-2-2-----2-2-2-2/-|
|--------------------------------------------------------------------| x3
  p.m......................................     .......     .......

|-----------------------------------------------------------|
|-------------------------------------------6-6---------6-6-|
|-------------------------------------------4-4---------4-4-|
|-----------------------------------------------------------|
|-3/5-5-5-5-5/6-6-6-6\3-3-3/5\3\2-2-2-2-2-2-----2-2-2-2-----|
|-----------------------------------------------------------|

Chorus 

|--------------------------|
|--------------------------|
|-5------------------------|
|-5-5-0-5-6-0-6-5-0-0--0-0-|
|-3-5-0-5-6-0-6-5-0-0--0-0-|
|---5-0-5-6-0-6-5-0-0--0-0-|

|------------------------|---------|
|------------------------|---------|
|-5----------------------|-4-4-4-4-|
|-5-5-0-5-6-0-6-5-0-0--0-|-x-x-x-x-|
|-3-5-0-5-6-0-6-5-0-0--0-|-2-2-2-2-|
|---5-0-5-6-0-6-5-0-0--0-|---------|

|--------------------------|
|--------------------------|
|-5------------------------|
|-5-5-0-5-6-0-6-5-0-0--0-0-|
|-3-5-0-5-6-0-6-5-0-0--0-0-|
|---5-0-5-6-0-6-5-0-0--0-0-|

|------------------------|---------|
|------------------------|---------|
|-5----------------------|-4-4-4-4-|
|-5-5-0-5-6-0-6-5-0-0--0-|-x-x-x-x-|
|-3-5-0-5-6-0-6-5-0-0--0-|-2-2-2-2-|
|---5-0-5-6-0-6-5-0-0--0-|---------| 

Verse 2

|--------------------------------------------------------------------|
|-------------------------------------------6-6---------6-6----------|
|-------------------------------------------4-4---------4-4----------|
|--------------------------------------------------------------------|
|-3/5-5-5-5-5/6-6-6-6\3-3-3/5\3\2-2-2-2-2-2-----2-2-2-2-----2-2-2-2/-|
|--------------------------------------------------------------------| x2
  p.m......................................     .......     .......

|-----7~-|
|---6----|
|-4------|
|--------|
|--------|
|--------|

|-----------------------------------------------------------|
|-------------------------------------------6-6---------6-6-|
|-------------------------------------------4-4---------4-4-|
|-----------------------------------------------------------|
|-3/5-5-5-5-5/6-6-6-6\3-3-3/5\3\2-2-2-2-2-2-----2-2-2-2-----|
|-----------------------------------------------------------|

Chorus 2

|--------------------------|
|--------------------------|
|-5------------------------|
|-5-5-0-5-6-0-6-5-0-0--0-0-|
|-3-5-0-5-6-0-6-5-0-0--0-0-|
|---5-0-5-6-0-6-5-0-0--0-0-|

|------------------------|---------|
|------------------------|---------|
|-5----------------------|-4-4-4-4-|
|-5-5-0-5-6-0-6-5-0-0--0-|-x-x-x-x-|
|-3-5-0-5-6-0-6-5-0-0--0-|-2-2-2-2-|
|---5-0-5-6-0-6-5-0-0--0-|---------|

|--------------------------|
|--------------------------|
|-5------------------------|
|-5-5-0-5-6-0-6-5-0-0--0-0-|
|-3-5-0-5-6-0-6-5-0-0--0-0-|
|---5-0-5-6-0-6-5-0-0--0-0-|

|------------------------|---------|
|------------------------|---------|
|-5----------------------|-4-4-4-4-|
|-5-5-0-5-6-0-6-5-0-0--0-|-x-x-x-x-|
|-3-5-0-5-6-0-6-5-0-0--0-|-2-2-2-2-|
|---5-0-5-6-0-6-5-0-0--0-|---------| 


|--------------------------|
|--------------------------|
|-5------------------------|
|-5-5-0-5-6-0-6-5-0-0--0-0-|
|-3-5-0-5-6-0-6-5-0-0--0-0-|
|---5-0-5-6-0-6-5-0-0--0-0-|

|------------------------|---------|
|------------------------|---------|
|-5----------------------|-4-4-4-4-|
|-5-5-0-5-6-0-6-5-0-0--0-|-x-x-x-x-|
|-3-5-0-5-6-0-6-5-0-0--0-|-2-2-2-2-|
|---5-0-5-6-0-6-5-0-0--0-|---------|

|--------------------------|
|--------------------------|
|-5------------------------|
|-5-5-0-5-6-0-6-5-0-0--0-0-|
|-3-5-0-5-6-0-6-5-0-0--0-0-|
|---5-0-5-6-0-6-5-0-0--0-0-|

|------------------------|---------|
|------------------------|---------|
|-5----------------------|-4-4-4-4-|
|-5-5-0-5-6-0-6-5-0-0--0-|-x-x-x-x-|
|-3-5-0-5-6-0-6-5-0-0--0-|-2-2-2-2-|
|---5-0-5-6-0-6-5-0-0--0-|---------|

Bridge

|---------------------------------------------------------------------|
|---------------------------------------------------------------------|
|-4-4-4-4/7\4-4-4-4/5-5-5-5-5-5-5-5/7-7-7-7/8\7-7-7-7\5-5-5-5-5-5-5-5-|
|-x-x-x-x-x-x-x-x-x-x-x-x-x-x-x-x-x-x-x-x-x-x-x-x-x-x-x-x-x-x-x-x-x-x-|
|-2-2-2-2/5\2-2-2-2/3-3-3-3-3-3-3-3/5-5-5-5/6\5-5-5-5\3-3-3-3-3-3-3-3-|
|---------------------------------------------------------------------| x6

|--------------------------|
|--------------------------|
|-5------------------------|
|-5-5-0-5-6-0-6-5-0-0--0-0-|
|-3-5-0-5-6-0-6-5-0-0--0-0-|
|---5-0-5-6-0-6-5-0-0--0-0-|

|------------------------|---------|
|------------------------|---------|
|-5----------------------|-4/5-5/7-|
|-5-5-0-5-6-0-6-5-0-0--0-|-x-x-x-x-|
|-3-5-0-5-6-0-6-5-0-0--0-|-2/3-3/5-|
|---5-0-5-6-0-6-5-0-0--0-|---------|

|--------------------------|
|--------------------------|
|-5------------------------|
|-5-5-0-5-6-0-6-5-0-0--0-0-|
|-3-5-0-5-6-0-6-5-0-0--0-0-|
|---5-0-5-6-0-6-5-0-0--0-0-|

|------------------------|---------|
|------------------------|---------|
|-5----------------------|-4/5-5/7-|
|-5-5-0-5-6-0-6-5-0-0--0-|-x-x-x-x-|
|-3-5-0-5-6-0-6-5-0-0--0-|-2/3-3/5-|
|---5-0-5-6-0-6-5-0-0--0-|---------|

|--------------------------|
|--------------------------|
|-5------------------------|
|-5-5-0-5-6-0-6-5-0-0--0-0-|
|-3-5-0-5-6-0-6-5-0-0--0-0-|
|---5-0-5-6-0-6-5-0-0--0-0-|

|------------------------|---------|
|------------------------|---------|
|-5----------------------|-4/5-5/7-|
|-5-5-0-5-6-0-6-5-0-0--0-|-x-x-x-x-|
|-3-5-0-5-6-0-6-5-0-0--0-|-2/3-3/5-|
|---5-0-5-6-0-6-5-0-0--0-|---------|

|------------------------|---------|
|------------------------|---------|
|-5----------------------|-4-4-4-4-|
|-5-5-0-5-6-0-6-5-0-0--0-|-x-x-x-x-|
|-3-5-0-5-6-0-6-5-0-0--0-|-2-2-2-2-|
|---5-0-5-6-0-6-5-0-0--0-|---------|

|-----------------|
|-----------------|
|-----------------|
|-----------------|
|-3---------------|
|---0-0--0--6p0-0-|

Bridge 2

|----------------------------------------------------------|
|----------------------------------------------------------|
|----------------------------------------------------------|
|----------------------------------------------------------|
|----------------------------------------------------------|
|-6p0-0-0--0-0--0-0--0-0--0-0-6p0--0-0--0-0--0-0--0-0--0-0-|

|-------------------------------------------|--------------|
|-------------------------------------------|--------------|
|-------------------------------------------|--------------|
|-------------------------------------------|--------------|
|-------------------------------------------|--------------|
|-6p0-0-0--0-0--0-0--0-0--0-0-6p0--0-0--0-0-|-x\\\\\\\\\\x-|
                                              Pick scrape

|----------------------------------------------------------|
|----------------------------------------------------------|
|----------------------------------------------------------|
|----------------------------------------------------------|
|-6p0-0-0--0-0--0-0--0-0--0-0-6p0--0-0--0-0--0-0--0-0--0-0-|
|-6p0-0-0--0-0--0-0--0-0--0-0-6p0--0-0--0-0--0-0--0-0--0-0-|x4

|---------------------------------------------------------------------|
|---------------------------------------------------------------------|
|-4-4-4-4/7\4-4-4-4/5-5-5-5-5-5-5-5/7-7-7-7/8\7-7-7-7\5-5-5-5-5-5-5-5-|
|-x-x-x-x-x-x-x-x-x-x-x-x-x-x-x-x-x-x-x-x-x-x-x-x-x-x-x-x-x-x-x-x-x-x-|
|-2-2-2-2/5\2-2-2-2/3-3-3-3-3-3-3-3/5-5-5-5/6\5-5-5-5\3-3-3-3-3-3-3-3-|
|---------------------------------------------------------------------|x2

|---------------------------------------------------------------|
|---------------------------------------------------------------|
|---------------7-7-7-7-8-8-8-8-----------------7-7-7-7-5-5-5-5-|
|---------------5-5-5-5-6-6-6-6-----------------5-5-5-5-3-3-3-3-|
|-6p0-0-0--0-0--5-5-5-5-6-6-6-6--6p0--0-0--0-0--5-5-5-5-3-3-3-3-|
|-6p0-0-0--0-0-------------------6p0--0-0--0-0------------------|x2

|-------|
|---6---|
|---4---|
|-------|
|-2---2-|
|-------|

|--------------------------------------------|
|---6---6------------------------------------|
|---4---4------------------------------------|
|---------1----------------------------------|
|-2---3---1----1----------1----------1-------|
|---------1--3---3-1-3--3---3-1-3--3---3-1-3-|x3

|----------------------------------------------|
|---6---6--------------------------------------|
|---4---4--------------------------------------|
|---------1------------------------------------|
|-2---3---1----1----------1----------1---------|
|---------1--3---3-1-3--3---3-1-3--3---3-1-3-1-|

|-------------|
|---6---6---6-|
|---4---4---4-|
|-------------|
|-2---2---2---|
|-------------|

|--------------------------|
|---6---6---6----6---6-----|
|---4---4---4----4---4-5-5-|
|----------------------5-5-|
|-2---2---2----2---2---3-3-|
|--------------------------|x4

|---------|
|---6--6~-|
|---4--4~-|
|---------|
|-2----2~-|
|---------|

Verse 3

|------------------------------------------------------------|
|-------------------------------------------6-6---------6-6--|
|-------------------------------------------4-4---------4-4--|
|------------------------------------------------------------|
|-3/5-5-5-5-5/6-6-6-6\3-3-3/5\3\2-2-2-2-2-2-----2-2-2-2------|
|------------------------------------------------------------|

|--------------------------------------------------------------------|
|-------------------------------------------6-6---------6-6----------|
|-------------------------------------------4-4---------4-4----------|
|--------------------------------------------------------------------|
|-3/5-5-5-5-5/6-6-6-6\3-3-3/5\3\2-2-2-2-2-2-----2-2-2-2-----2-2-2-2/-|
|--------------------------------------------------------------------|x2
  p.m......................................     .......     .......

|--------------------------------------------------------------------|
|--------------------------------------------------------------------|
|---------------------------------------------4------------4---------|
|-------------------------------------3-3-3-3---3--3-3-3-3---3-3-3-3-|
|-3/5-5-5-5-5/6-6-6-6\3-3-3/5\3\2-2-2--------------------------------|
|--------------------------------------------------------------------|x2
  p.m.............................................................

|------------------------------------------------|
|------------------------------------------------|
|------------------------------------------------|
|------------------------------------------------|
|-3/5-5-5-5-5/6-6-6-6\3-3-3/5\3\2-2-2-2----------|
|----------------------------------------6p0-0-0-|

|------------------------------------------------7-|
|------------------------------------------------6-|
|------------------------------------------------4-|
|--------------------------------------------------|
|-3/5-5-5-5-5/6-6-6-6\3-3-3/5\3\2-2-2-2------------|
|----------------------------------------6p0-0-0---|

|---------------------------------------------------------|
|---------------------------------------------------------|
|---------------------------------------------------------|
|---------------------------------------------------------|
|-3/5-5-5-5-5/6-6-6-6\3-3-3/5\3\2-2-2-2-------------------|
|----------------------------------------6p0-0-0--0--0--0-|

|----------------------------------------|
|----------------------------------------|
|----------------------------------------|
|----------------------------------------|
|-3/5-5-5-5-5/6-6-6-6\3-3-3/5\3\2-2-2-2--|
|----------------------------------------|

|------------------------|
|------------------------|
|------------------------|
|-0-0-0-0--0-0-0--0-0--0-|
|-0-0-0-0--0-0-0--0-0--0-|
|-0-0-0-0--0-0-0--0-0--0-|

Chorus 3

|--------------------------|
|--------------------------|
|-5------------------------|
|-5-5-0-5-6-0-6-5-0-0--0-0-|
|-3-5-0-5-6-0-6-5-0-0--0-0-|
|---5-0-5-6-0-6-5-0-0--0-0-|

|------------------------|---------|
|------------------------|---------|
|-5----------------------|-4-4-4-4-|
|-5-5-0-5-6-0-6-5-0-0--0-|-x-x-x-x-|
|-3-5-0-5-6-0-6-5-0-0--0-|-2-2-2-2-|
|---5-0-5-6-0-6-5-0-0--0-|---------|

|--------------------------|
|--------------------------|
|-5------------------------|
|-5-5-0-5-6-0-6-5-0-0--0-0-|
|-3-5-0-5-6-0-6-5-0-0--0-0-|
|---5-0-5-6-0-6-5-0-0--0-0-|

|------------------------|---------|
|------------------------|---------|
|-5----------------------|-4-4-4-4-|
|-5-5-0-5-6-0-6-5-0-0--0-|-x-x-x-x-|
|-3-5-0-5-6-0-6-5-0-0--0-|-2-2-2-2-|
|---5-0-5-6-0-6-5-0-0--0-|---------| 

|-----------------|
|-----------------|
|-----------------|
|-----------------|
|-3---------------|
|---0-0--0--6p0-0-|

Outro

|-----------------------------------------------------------------|
|-----------------------------------------------------------------|
|-----------------------------------------------------------------|
|-----------------------------3-----------------------------------|
|-----------------------------2-----------------------------------|
|-3-2-1-3-2-1-3-1-331-1-3-2-1---3-2-1-3-2-1-3-1-331-1-331-1-331-1-|





Comments


Popular Mudvayne tabs & chords
(Per)Version Of A Truth 1 Bass Tabs
Choices 1 Bass Tabs
Dig 5 Bass Tabs
Dull Boy Bass Tabs
Happy 2 Bass Tabs
Pushing Through 2 Bass Tabs
Cradle 2 Tabs
Dull Boy 4 Tabs
Happy 1 Tabs
World So Cold Complete Tabs


Song lyrics



↑ Back to top | Tablatures and chords are parodies/interpretations of the original songs. You may use it for private study, scholarship, research or language learning purposes only
© 2014 AZChords.com Contact us | Privacy policy | DMCA | Add/correct tabs | Request tabs | Top 50 tabs