» » »

Mudvayne, Dull Boy Tabs (ver.2)

Artists:  A B C D E F G H I J K L M N O P Q R S T U V W X Y Z # 

Dull Boy Tabs (ver.2)

Mudvayne Tabs
Rating:
0/5 (0 votes)
Hard to play? Try these video lessons and learn fast.
                -------------------------------------------------------------------------------
                             Dull Boy - Mudvayne
-------------------------------------------------------------------------------


Tuning: Guitar 1 - Drop C
        Guitar 2 - Drop C

Key
| /  slide up
| \  slide down
| h  hammer-on
| p  pull-off
| ~  sustain
| PM palm mute


When asterisks divide two sets of lines, Guitar 2 follows Guitar 1 and they are played 
simultaneously. Guitar 2 comes in during the chorus and the breakdown.

Intro/ Verse (All palm muted, repeat throughout)
D|-------------------------------------------------------------|
A|-------------------------------------------------------------|
F|-------------------------------------------------------------|
C|-------------------------------------------------------------|
G|-------------------------------------------------------------|
C|--2--2----2-2-2--2--2--2-2-2--2-2-2--2--2----2-2-2--2-2-2----|

Pre-Chorus 
D|--------------------------------------------------------------------------------------------------|
A|--------------------------------------------------------------------------------------------------|
F|--------------------------------------------------------------------------------------------------|
C|--------------------------------------------------------------------------------------------------|
G|--3--2--------------------3--2--------------------6--5--------------------3-3-3-------2-2-2-------|
C|--------3--2--5--2--3--2--------3--2--0--2--3--5--------5--2--3--2--5--2--------5-5-5-------3-3-3-|
P.M.                                                                        ^ ^ ^ ^ ^ ^ ^ ^ ^ ^ ^ ^
D|--------------------------------------------------------------------------------------------------|
A|--------------------------------------------------------------------------------------------------|
F|--------------------------------------------------------------------------------------------------|
C|--------------------------------------------------------------------------------------------------|
G|--3--2--------------------3--2--------------------6--5--------------------3-3-3-------2-2-2-------|
C|--------3--2--5--2--3--2--------3--2--0--2--3--5--------5--2--3--2--5--2--------5-5-5-------3-3-3-|
P.M.                                                                        ^ ^ ^ ^ ^ ^ ^ ^ ^ ^ ^ ^

Chorus
D|--------------------------------------------------------------------------------------------------|
A|--------------------------------------------------------------------------------------------------|
F|--------------------------------------------------------------------------------------------------|
C|--5--5--5--5--5--5--5--5--5--5--5--5--5--5--7--7--4--4--4--4--4--4--4--4--0--0--0--0--0--0--0--0--|
G|--5--5--5--5--5--5--5--5--5--5--5--5--5--5--7--7--4--4--4--4--4--4--4--4--0--0--0--0--0--0--0--0--|
C|--5--5--5--5--5--5--5--5--5--5--5--5--5--5--7--7--4--4--4--4--4--4--4--4--0--0--0--0--0--0--0--0--|
*****************************************************************************************************
D|--------------------------------------------------------------------------------------------------|
A|--------------------------------------------------------------------------------------------------|
F|-12-12-12-12-12-12-12-12-12-12-12-12-12-12-12-12-11-11-11-11-11-11-11-11----------14-14-14-14-14--|
C|--x--x--x--x--x--x--x--x--x--x--x--x--x--x--x--x--x--x--x--x--x--x--x--x--9--9--9--x--x--x--x--x--|
G|-10-10-10-10-10-10-10-10-10-10-10-10-10-10-10-10--9--9--9--9--9--9--9--9--x--x--x-12-12-12-12-12--|
C|--------------------------------------------------------------------------9--9--9-----------------|

D|--------------------------------------------------------------------------------------------------|
A|--------------------------------------------------------------------------------------------------|
F|--------------------------------------------------------------------------------------------------|
C|--5--5--5--5--5--5--5--5--5--5--5--5--5--5--7--7--4--4--4--4--4--4--4--4--0--0--0--0--0--0--0--0--|
G|--5--5--5--5--5--5--5--5--5--5--5--5--5--5--7--7--4--4--4--4--4--4--4--4--0--0--0--0--0--0--0--0--|
C|--5--5--5--5--5--5--5--5--5--5--5--5--5--5--7--7--4--4--4--4--4--4--4--4--0--0--0--0--0--0--0--0--|
*****************************************************************************************************
D|--------------------------------------------------------------------------------------------------|
A|--------------------------------------------------------------------------------------------------|
F|-12-12-12-12-12-12-12-12-12-12-12-12-12-12-12-12-11-11-11-11-11-11-11-11----------14-14-14-14-14--|
C|--x--x--x--x--x--x--x--x--x--x--x--x--x--x--x--x--x--x--x--x--x--x--x--x--9--9--9--x--x--x--x--x--|
G|-10-10-10-10-10-10-10-10-10-10-10-10-10-10-10-10--9--9--9--9--9--9--9--9--x--x--x-12-12-12-12-12--|
C|--------------------------------------------------------------------------9--9--9-----------------|

D|--------------------------------------------------------------------------------------------------|
A|--------------------------------------------------------------------------------------------------|
F|--------------------------------------------------------------------------------------------------|
C|--5--5--5--5--5--5--5--5--5--5--5--5--5--5--7--7--4--4--4--4--4--4--4--4--0--0--0--0--0--0--0--0--|
G|--5--5--5--5--5--5--5--5--5--5--5--5--5--5--7--7--4--4--4--4--4--4--4--4--0--0--0--0--0--0--0--0--|
C|--5--5--5--5--5--5--5--5--5--5--5--5--5--5--7--7--4--4--4--4--4--4--4--4--0--0--0--0--0--0--0--0--|
*****************************************************************************************************
D|--------------------------------------------------------------------------------------------------|
A|--------------------------------------------------------------------------------------------------|
F|-12-12-12-12-12-12-12-12-12-12-12-12-12-12-12-12-11-11-11-11-11-11-11-11----------14-14-14-14-14--|
C|--x--x--x--x--x--x--x--x--x--x--x--x--x--x--x--x--x--x--x--x--x--x--x--x--9--9--9--x--x--x--x--x--|
G|-10-10-10-10-10-10-10-10-10-10-10-10-10-10-10-10--9--9--9--9--9--9--9--9--x--x--x-12-12-12-12-12--|
C|--------------------------------------------------------------------------9--9--9-----------------|

D|--------------------------------------------------------------------------------------------------|
A|--------------------------------------------------------------------------------------------------|
F|--------------------------------------------------------------------------------------------------|
C|--5--5--5--5--5--5--5--5--5--5--5--5--5--5--7--7--4--4--4--4--4--4--4--4--0--0--0--0--0--0--0--0--|
G|--5--5--5--5--5--5--5--5--5--5--5--5--5--5--7--7--4--4--4--4--4--4--4--4--0--0--0--0--0--0--0--0--|
C|--5--5--5--5--5--5--5--5--5--5--5--5--5--5--7--7--4--4--4--4--4--4--4--4--0--0--0--0--0--0--0--0--|
*****************************************************************************************************
D|--------------------------------------------------------------------------------------------------|
A|--------------------------------------------------------------------------------------------------|
F|-12-12-12-12-12-12-12-12-12-12-12-12-12-12-12-12-11-11-11-11-11-11-11-11----------14-14-14-14-14--|
C|--x--x--x--x--x--x--x--x--x--x--x--x--x--x--x--x--x--x--x--x--x--x--x--x--9--9--9--x--x--x--x--x--|
G|-10-10-10-10-10-10-10-10-10-10-10-10-10-10-10-10--9--9--9--9--9--9--9--9--x--x--x-12-12-12-12-12--|
C|--------------------------------------------------------------------------9--9--9-----------------|

Second Verse
D|-------------------------------------------------------------|
A|-------------------------------------------------------------|
F|-------------------------------------------------------------|
C|-------------------------------------------------------------|
G|-------------------------------------------------------------|
C|--2--2----2-2-2--2--2--2-2-2--2-2-2--2--2----2-2-2--2-2-2----|

Pre- Chorus
D|--------------------------------------------------------------------------------------------------|
A|--------------------------------------------------------------------------------------------------|
F|--------------------------------------------------------------------------------------------------|
C|--------------------------------------------------------------------------------------------------|
G|--3--2--------------------3--2--------------------6--5--------------------3-3-3-------2-2-2-------|
C|--------3--2--5--2--3--2--------3--2--0--2--3--5--------5--2--3--2--5--2--------5-5-5-------3-3-3-|
P.M.                                                                        ^ ^ ^ ^ ^ ^ ^ ^ ^ ^ ^ ^

Second Chorus
D|--------------------------------------------------------------------------------------------------|
A|--------------------------------------------------------------------------------------------------|
F|--------------------------------------------------------------------------------------------------|
C|--5--5--5--5--5--5--5--5--5--5--5--5--5--5--7--7--4--4--4--4--4--4--4--4--0--0--0--0--0--0--0--0--|
G|--5--5--5--5--5--5--5--5--5--5--5--5--5--5--7--7--4--4--4--4--4--4--4--4--0--0--0--0--0--0--0--0--|
C|--5--5--5--5--5--5--5--5--5--5--5--5--5--5--7--7--4--4--4--4--4--4--4--4--0--0--0--0--0--0--0--0--|
*****************************************************************************************************
D|--------------------------------------------------------------------------------------------------|
A|--------------------------------------------------------------------------------------------------|
F|-12-12-12-12-12-12-12-12-12-12-12-12-12-12-12-12-11-11-11-11-11-11-11-11----------14-14-14-14-14--|
C|--x--x--x--x--x--x--x--x--x--x--x--x--x--x--x--x--x--x--x--x--x--x--x--x--9--9--9--x--x--x--x--x--|
G|-10-10-10-10-10-10-10-10-10-10-10-10-10-10-10-10--9--9--9--9--9--9--9--9--x--x--x-12-12-12-12-12--|
C|--------------------------------------------------------------------------9--9--9-----------------|

D|--------------------------------------------------------------------------------------------------|
A|--------------------------------------------------------------------------------------------------|
F|--------------------------------------------------------------------------------------------------|
C|--5--5--5--5--5--5--5--5--5--5--5--5--5--5--7--7--4--4--4--4--4--4--4--4--0--0--0--0--0--0--0--0--|
G|--5--5--5--5--5--5--5--5--5--5--5--5--5--5--7--7--4--4--4--4--4--4--4--4--0--0--0--0--0--0--0--0--|
C|--5--5--5--5--5--5--5--5--5--5--5--5--5--5--7--7--4--4--4--4--4--4--4--4--0--0--0--0--0--0--0--0--|
*****************************************************************************************************
D|--------------------------------------------------------------------------------------------------|
A|--------------------------------------------------------------------------------------------------|
F|-12-12-12-12-12-12-12-12-12-12-12-12-12-12-12-12-11-11-11-11-11-11-11-11----------14-14-14-14-14--|
C|--x--x--x--x--x--x--x--x--x--x--x--x--x--x--x--x--x--x--x--x--x--x--x--x--9--9--9--x--x--x--x--x--|
G|-10-10-10-10-10-10-10-10-10-10-10-10-10-10-10-10--9--9--9--9--9--9--9--9--x--x--x-12-12-12-12-12--|
C|--------------------------------------------------------------------------9--9--9-----------------|

D|--------------------------------------------------------------------------------------------------|
A|--------------------------------------------------------------------------------------------------|
F|--------------------------------------------------------------------------------------------------|
C|--5--5--5--5--5--5--5--5--5--5--5--5--5--5--7--7--4--4--4--4--4--4--4--4--0--0--0--0--0--0--0--0--|
G|--5--5--5--5--5--5--5--5--5--5--5--5--5--5--7--7--4--4--4--4--4--4--4--4--0--0--0--0--0--0--0--0--|
C|--5--5--5--5--5--5--5--5--5--5--5--5--5--5--7--7--4--4--4--4--4--4--4--4--0--0--0--0--0--0--0--0--|
*****************************************************************************************************
D|--------------------------------------------------------------------------------------------------|
A|--------------------------------------------------------------------------------------------------|
F|-12-12-12-12-12-12-12-12-12-12-12-12-12-12-12-12-11-11-11-11-11-11-11-11----------14-14-14-14-14--|
C|--x--x--x--x--x--x--x--x--x--x--x--x--x--x--x--x--x--x--x--x--x--x--x--x--9--9--9--x--x--x--x--x--|
G|-10-10-10-10-10-10-10-10-10-10-10-10-10-10-10-10--9--9--9--9--9--9--9--9--x--x--x-12-12-12-12-12--|
C|--------------------------------------------------------------------------9--9--9-----------------|

D|--------------------------------------------------------------------------------------------------|
A|--------------------------------------------------------------------------------------------------|
F|--------------------------------------------------------------------------------------------------|
C|--5--5--5--5--5--5--5--5--5--5--5--5--5--5--7--7--4--4--4--4--4--4--4--4--0--0--0--0--0--0--0--0--|
G|--5--5--5--5--5--5--5--5--5--5--5--5--5--5--7--7--4--4--4--4--4--4--4--4--0--0--0--0--0--0--0--0--|
C|--5--5--5--5--5--5--5--5--5--5--5--5--5--5--7--7--4--4--4--4--4--4--4--4--0--0--0--0--0--0--0--0--|
*****************************************************************************************************
D|--------------------------------------------------------------------------------------------------|
A|--------------------------------------------------------------------------------------------------|
F|-12-12-12-12-12-12-12-12-12-12-12-12-12-12-12-12-11-11-11-11-11-11-11-11----------14-14-14-14-14--|
C|--x--x--x--x--x--x--x--x--x--x--x--x--x--x--x--x--x--x--x--x--x--x--x--x--9--9--9--x--x--x--x--x--|
G|-10-10-10-10-10-10-10-10-10-10-10-10-10-10-10-10--9--9--9--9--9--9--9--9--x--x--x-12-12-12-12-12--|
C|--------------------------------------------------------------------------9--9--9-----------------|

Breakdown (Both guitars are clean)
D|--------------------------------------------------------------------------------------------------|
A|--------------------------------------------------------------------------------------------------|
F|------------------------------------------------------------------------------------------------2-|
C|--------5----------5----------4----------4---5---2-4-------5----------5----------4----------4-----|
G|-----2----------2----------2----------2----2---2--------2----------2----------2----------2----2---|
C|--2----------2----------2----------2-----------------2----------2----------2----------2-----------|

D|--------------------------------------------------------------------------------------------------|
A|--------------------------------------------------------------------------------------------------|
F|------------------------------------------------------------------------------------------------2-|
C|--------5----------5----------4----------4---5---2-4-------5----------5----------4----------4-----|
G|-----2----------2----------2----------2----2---2--------2----------2----------2----------2----2---|
C|--2----------2----------2----------2-----------------2----------2----------2----------2-----------|
*****************************************************************************************************
D|--------------------------------------------------------------------------------------------------|
A|--12~-------------15p13-12---------------------------12~--------------15p13-12--------------------|
F|---------------------------14--------------------------------------------------14-----------------|
C|--------------------------------------------------------------------------------------------------|
G|--------------------------------------------------------------------------------------------------|
C|--------------------------------------------------------------------------------------------------|

D|-------------------------------------------------------------------------------------|
A|-------------------------------------------------------------------------------------|
F|-------------------------------------------------------------------------------------|
C|--------5----------5----------4----------4---5---2-4-------5----------5----------4---|
G|-----2----------2----------2----------2----2---2--------2----------2----------2------|
C|--2----------2----------2----------2-----------------2----------2----------2---------|
****************************************************************************************
D|-------------------------------------------------------------------------------------|
A|--12~-------------15p13-12---------------------------12~--------------15p13-12-------|
F|---------------------------14--------------------------------------------------14----|
C|-------------------------------------------------------------------------------------|
G|-------------------------------------------------------------------------------------|
C|-------------------------------------------------------------------------------------|

Third Chorus
D|--------------------------------------------------------------------------------------------------|
A|--------------------------------------------------------------------------------------------------|
F|--------------------------------------------------------------------------------------------------|
C|--5--5--5--5--5--5--5--5--5--5--5--5--5--5--7--7--4--4--4--4--4--4--4--4--0--0--0--0--0--0--0--0--|
G|--5--5--5--5--5--5--5--5--5--5--5--5--5--5--7--7--4--4--4--4--4--4--4--4--0--0--0--0--0--0--0--0--|
C|--5--5--5--5--5--5--5--5--5--5--5--5--5--5--7--7--4--4--4--4--4--4--4--4--0--0--0--0--0--0--0--0--|
*****************************************************************************************************
D|--------------------------------------------------------------------------------------------------|
A|--------------------------------------------------------------------------------------------------|
F|-12-12-12-12-12-12-12-12-12-12-12-12-12-12-12-12-11-11-11-11-11-11-11-11----------14-14-14-14-14--|
C|--x--x--x--x--x--x--x--x--x--x--x--x--x--x--x--x--x--x--x--x--x--x--x--x--9--9--9--x--x--x--x--x--|
G|-10-10-10-10-10-10-10-10-10-10-10-10-10-10-10-10--9--9--9--9--9--9--9--9--x--x--x-12-12-12-12-12--|
C|--------------------------------------------------------------------------9--9--9-----------------|

D|--------------------------------------------------------------------------------------------------|
A|--------------------------------------------------------------------------------------------------|
F|--------------------------------------------------------------------------------------------------|
C|--5--5--5--5--5--5--5--5--5--5--5--5--5--5--7--7--4--4--4--4--4--4--4--4--0--0--0--0--0--0--0--0--|
G|--5--5--5--5--5--5--5--5--5--5--5--5--5--5--7--7--4--4--4--4--4--4--4--4--0--0--0--0--0--0--0--0--|
C|--5--5--5--5--5--5--5--5--5--5--5--5--5--5--7--7--4--4--4--4--4--4--4--4--0--0--0--0--0--0--0--0--|
*****************************************************************************************************
D|--------------------------------------------------------------------------------------------------|
A|--------------------------------------------------------------------------------------------------|
F|-12-12-12-12-12-12-12-12-12-12-12-12-12-12-12-12-11-11-11-11-11-11-11-11----------14-14-14-14-14--|
C|--x--x--x--x--x--x--x--x--x--x--x--x--x--x--x--x--x--x--x--x--x--x--x--x--9--9--9--x--x--x--x--x--|
G|-10-10-10-10-10-10-10-10-10-10-10-10-10-10-10-10--9--9--9--9--9--9--9--9--x--x--x-12-12-12-12-12--|
C|--------------------------------------------------------------------------9--9--9-----------------|

D|--------------------------------------------------------------------------------------------------|
A|--------------------------------------------------------------------------------------------------|
F|--------------------------------------------------------------------------------------------------|
C|--5--5--5--5--5--5--5--5--5--5--5--5--5--5--7--7--4--4--4--4--4--4--4--4--0--0--0--0--0--0--0--0--|
G|--5--5--5--5--5--5--5--5--5--5--5--5--5--5--7--7--4--4--4--4--4--4--4--4--0--0--0--0--0--0--0--0--|
C|--5--5--5--5--5--5--5--5--5--5--5--5--5--5--7--7--4--4--4--4--4--4--4--4--0--0--0--0--0--0--0--0--|
*****************************************************************************************************
D|--------------------------------------------------------------------------------------------------|
A|--------------------------------------------------------------------------------------------------|
F|-12-12-12-12-12-12-12-12-12-12-12-12-12-12-12-12-11-11-11-11-11-11-11-11----------14-14-14-14-14--|
C|--x--x--x--x--x--x--x--x--x--x--x--x--x--x--x--x--x--x--x--x--x--x--x--x--9--9--9--x--x--x--x--x--|
G|-10-10-10-10-10-10-10-10-10-10-10-10-10-10-10-10--9--9--9--9--9--9--9--9--x--x--x-12-12-12-12-12--|
C|--------------------------------------------------------------------------9--9--9-----------------|

D|--------------------------------------------------------------------------------------------------|
A|--------------------------------------------------------------------------------------------------|
F|--------------------------------------------------------------------------------------------------|
C|--5--5--5--5--5--5--5--5--5--5--5--5--5--5--7--7--4--4--4--4--4--4--4--4--0--0--0--0--0--0--0--0--|
G|--5--5--5--5--5--5--5--5--5--5--5--5--5--5--7--7--4--4--4--4--4--4--4--4--0--0--0--0--0--0--0--0--|
C|--5--5--5--5--5--5--5--5--5--5--5--5--5--5--7--7--4--4--4--4--4--4--4--4--0--0--0--0--0--0--0--0--|
*****************************************************************************************************
D|--------------------------------------------------------------------------------------------------|
A|--------------------------------------------------------------------------------------------------|
F|-12-12-12-12-12-12-12-12-12-12-12-12-12-12-12-12-11-11-11-11-11-11-11-11----------14-14-14-14-14--|
C|--x--x--x--x--x--x--x--x--x--x--x--x--x--x--x--x--x--x--x--x--x--x--x--x--9--9--9--x--x--x--x--x--|
G|-10-10-10-10-10-10-10-10-10-10-10-10-10-10-10-10--9--9--9--9--9--9--9--9--x--x--x-12-12-12-12-12--|
C|--------------------------------------------------------------------------9--9--9-----------------|

Outro (Distorted)
D|--------------------------------------------------------------------------------------------------|
A|--------------------------------------------------------------------------------------------------|
F|------------------------------------------------------------------------------------------------2-|
C|--------5----------5----------4----------4---5---2-4-------5----------5----------4----------4-----|
G|-----2----------2----------2----------2----2---2--------2----------2----------2----------2----2---|
C|--2----------2----------2----------2-----------------2----------2----------2----------2-----------|

D|------------------------------------------------------------------------------------|
A|------------------------------------------------------------------------------------|
F|------------------------------------------------------------------------------------|
C|--------5----------5----------4----------4---5---2-4-------5----------5----------0--|
G|-----2----------2----------2----------2----2---2--------2----------2----------0-----|
C|--2----------2----------2----------2-----------------2----------2----------0--------|
            

comments powered by Disqus
↑ Back to top | Mudvayne Tabs for Dull Boy. Lyrics for acoustic guitar and electric guitar. Tablatures and chords are parodies/interpretations of the original songs. You may use it for private study, scholarship, research or language learning purposes only