>
 >
Dull Boy 2

Dull Boy 2 Bass Tabs

Mudvayne - Dull Boy 2 chords, tabs, tablatures, lyrics

Guitar lessons | Add/correct | Request | Top 50 tabs Artists:  A B C D E F G H I J K L M N O P Q R S T U V W X Y Z 0-9

Dull Boy 2 Bass Tabs – Mudvayne

CD, Sheet music, Poster

Do you like Dull Boy 2? Share with your friends now
Bass TabsBass Tabs v2Bass Tabs v3Bass Tabs v4TabsTabs v2Tabs v3Tabs v4Tabs v5
Mudvayne :: Dull Boy :: bass tab
tuning: F#,B,F#,B,E

P = pop
S = slap
~ = vibrato
/  = slide up
\  = slide down
^ = strum
-3- = triplet


                                “Verse 1”
E |-7------7------10-9----9------------------------|
B |--------------------12---12-10-12---------------|
F#|--5-555--5-555----------------------------------|
B |------------------------------------------------|
F#|------------------------------------------------|
    ps sss ps sss

E |-7------7---------------------------------------|
B |---------------8-7----7-------------------------|
F#|--5-555--5-555-----10---10-8-10-----------------|
B |------------------------------------------------|
F#|------------------------------------------------|
    ps sss ps sss

E |-7------7------10-9----9------------------------|
B |--------------------12---12-10-12---------------|
F#|--5-555--5-555----------------------------------|
B |------------------------------------------------|
F#|------------------------------------------------|
    ps sss ps sss
E |-7------7---------------------------------------|
B |------------------------------------------------|
F#|--5-555--5-555--1-0---0-------------------------|
B |--------------------5---5-3-5-------------------|
F#|------------------------------------------------|
    ps sss ps sss

E |------------------------------------------------|
B |---------------3-2-0-2-0---0--------------------|
F#|-0------0----------------3----------------------|
B |------------------------------------------------|
F#|--5-555--5-555----------------------------------|
    ps sss ps sss

E |------------------------------------------------|
B |------------------------------------------------|
F#|-0------0------1-0---0--------------------------|
B |-------------------5---5-3-5--------------------|
F#|--5-555--5-555----------------------------------|
    ps sss ps sss



E |------------------------------------------------|
B |---------------2-0---0-2-3-2-0------------------|
F#|-0------0----------3----------------------------|
B |------------------------------------------------|
F#|--5-555--5-555----------------------------------|
    ps sss ps sss


E |------------------------------------------------|
B |--------------3-2-0---0-------------------------|
F#|-0------0-----------3--1-0---0------------------|
B |---------------------------5--------------------|
F#|--5-555--5-55-----------------------------------|
    ps sss ps ss
                          “Pre Chorus” 
E |-------------------------------------------------------------------||
B |-------------------------------------------------------------------||
F#|-1-0-------------1-0-------------5-0-------------111-----000-------|| x2
B |-----3-2-5-2-3-2-----3-2---2-3-5-----3-2-5-2-3-2-----444-----333---||
F#|-------------------------5-----------------------------------------||
                                                    -3- -3- -3- -3-
                          “Chorus”
E |-------------------------------------------------------------------||
B |-------------------------------------------------------------------||
F#|---------------------------1-0-0-0-0-0-0-0-0-3-3-3-3-9-9-9---------||  x4
B |-----------------7-7-7-7/------------------------------------------||
F#|-5-5-5-5-5-5-5-5---------------------------------------------------||

                “verse 2 intro”
E |-7------7-------6-6-9-9-7-7-7-------------------|
B |------------------------0-0-0-------------------|
F#|--5-555--5-555----------------------------------|
B |------------------------------------------------|
F#|------------------------------------------------|
    ps sss ps sss          ^ ^ ^

E |-7------7---------------------------------------|
B |-----------------7--6----7--6-------------------|
F#|--5-555--5-555----------------------------------|
B |----------------7-55---55--5-5---------------|
F#|------------------------------------------------|
    ps sss ps sss  spssp  ssp sps

                “verse 2”
E |-7------7------10-9----9------------------------|
B |--------------------12---12-10-12---------------|
F#|--5-555--5-555----------------------------------|
B |------------------------------------------------|
F#|------------------------------------------------|
    ps sss ps sss

E |-7------7---------------------------------------|
B |---------------8-7----7-------------------------|
F#|--5-555--5-555-----10---10-8-10-----------------|
B |------------------------------------------------|
F#|------------------------------------------------|
    ps sss ps sss



E |-7------7------10-9----9------------------------|
B |--------------------12---12-10-12---------------|
F#|--5-555--5-555----------------------------------|
B |------------------------------------------------|
F#|------------------------------------------------|
    ps sss ps sss


E |-7------7---------------------------------------|
B |------------------------------------------------|
F#|--5-555--5-555--1-0---0-1-3-1-------------------|
B |--------------------5---------------------------|
F#|------------------------------------------------|
    ps sss ps sss

E |------------------------------------------------|
B |---------------2-0---0-2-3-2-0------------------|
F#|-0------0----------3----------------------------|
B |------------------------------------------------|
F#|--5-555--5-555----------------------------------|
    ps sss ps sss

E |------------------------------------------------|
B |------------------------------------------------|
F#|-0------0------1-0---0-1-3-1-0------------------|
B |-------------------5----------------------------|
F#|--5-555--5-555----------------------------------|
    ps sss ps sss

E |------------------------------------------------|
B |---------------2-0---0-2-3-2-0------------------|
F#|-0------0----------3----------------------------|
B |------------------------------------------------|
F#|--5-555--5-555----------------------------------|
    ps sss ps sss

E |------------------------------------------------|
B |---------------3-2-0---0------------------------|
F#|-0------0------------3---1-0---0----------------|
B |-----------------------------5------------------|
F#|--5-555--5-555----------------------------------|
    PS SSS PS SSS
                   “pre chorus”
E |-------------------------------------------------------------------|
B |-------------------------------------------------------------------|
F#|-1-0-------------1-0-------------5-0-------------111-----000-------|
B |-----3-2-5-2-3-2-----3-2---2-3-5-----3-2-5-2-3-2-----444-----333---|
F#|-------------------------5-----------------------------------------|
                                                    -3- -3- -3- -3-
                          “Chorus”
E |-------------------------------------------------------------------||
B |-------------------------------------------------------------------||
F#|---------------------------1-0-0-0-0-0-0-0-0-3-3-3-3-9-9-9---------||  x4
B |-----------------7-7-7-7/------------------------------------------||
F#|-5-5-5-5-5-5-5-5---------------------------------------------------||





E |--------|
B |--------|
F#|---5----|| ring out x4
B |--------|
F#|--------|





             “slow part – verse 3”
E |------------------------------------------------||
B |-------14-12-14----14-12--14-12-16-17-16-14-----||
F#|------------------------------------------------||
B |-12-14----------12------------------------------||
F#|------------------------------------------------||
                                                   ||
                                                   || x2
E |------------------------------------------------||
B |-------14-12-14---------------------------------||
F#|-------------------12-14--12-14-12--------------||
B |-12-14----------12-----------------14-12-14~~---||
F#|------------------------------------------------||


E |------------------------------------------------|
B |------------------------------------------------|
F#|-----5-3-5---5-3--5-3-7-8-7-5-------------------|
B |------------------------------------------------|
F#|-3-5-------3------------------------------------|

E |------------------------------------------------|
B |------------------------------------------------|
F#|-----5-3-5--------------------------------------|
B |-------------7-5--7-5---------------------------|
F#|-3-5-------3----------5-3-5---------------------|

E |------------------------------------------------|
B |------------------------------------------------|
F#|-----5-3-5---5-3--5-3-7-8-7-5-------------------|
B |------------------------------------------------|
F#|-3-5-------3------------------------------------|



E |------------------------------------------------|
B |------------------------------------------------|
F#|-----5------------------------------------------|
B |------------------------------------------------|
F#|-3-5--------------------------------------------|


                          




					

					“Chorus”

E |-------------------------------------------------------------------||
B |-------------------------------------------------------------------||
F#|---------------------------1-0-0-0-0-0-0-0-0-3-3-3-3-9-9-9---------||  x4
B |-----------------7-7-7-7/------------------------------------------||
F#|-5-5-5-5-5-5-5-5---------------------------------------------------||


E |----------------||
B |----------------||
F#|-----5----------||  x4
B |----------------||
F#|-5-7------------||


E |----------------||
B |----------------||
F#|-----5-3-5------||  x3
B |----------------||
F#|-3-5------------||



E |----------------||
B |----------------||
F#|-----3-3-3------|| ring out
B |----------------||
F#|----------------||





Comments


Popular Mudvayne tabs & chords
All That You Are Bass Tabs
Silenced Bass Tabs
The Patient Mental Bass Tabs
Choices Intro 1 Tabs
Death Blooms Tabs
Determined 2 Tabs
Know Forever 1 Tabs
Mercy, Severity Tabs
World So Cold Complete Tabs
Your Puppet N Clown Tabs


Song lyrics



↑ Back to top | Tablatures and chords are parodies/interpretations of the original songs. You may use it for private study, scholarship, research or language learning purposes only
© 2014 AZChords.com Contact us | Privacy policy | DMCA | Add/correct tabs | Request tabs | Top 50 tabs