>
 >
Determined 1

Determined 1 Guitar Tabs

Mudvayne - Determined 1 chords, tabs, tablatures, lyrics

Guitar lessons | Add/correct | Request | Top 50 tabs Artists:  A B C D E F G H I J K L M N O P Q R S T U V W X Y Z 0-9

Determined 1 Guitar Tabs – Mudvayne

CD, Sheet music, Poster

Do you like Determined 1? Share with your friends now
Bass TabsBass Tabs v2Bass Tabs v3TabsTabs v2Tabs v3
v - Downstroke
^ - Upstroke
h - Hammer On
p - Pull Off
* - Natural Harmonic Note
~ - Let Ring
/ - Slide Up
\ - Slide Down
x - Muted String
p.m. - Palm Mute


Intro:

D |--------------------------------------------------------------||
A |--------------------------------------------------------------||
F |--------------------------------------------------------------||
C |--------------------------------------------------------------||
G |--------------------------------------------------------------||
C |---2-2-2-2--3-3-3-3--5-5-5-5--8-8-8-8-------------------------|| x8


Pre-Verse (also is the Chorus riff later):

D |--------------------------------------------------------------||
A |--------------------------------------------------------------||
F |--------------------------------------------------------------||
C |---0-3-0-3-0-3-0-3-6-0---0--3h6p0-3h6p0-----------------------||
G |---0-3-0-3-0-3-0-3-6-0---0--3h6p0-3h6p0-----------------------||
C |---0-3-0-3-0-3-0-3-6-0---0--3h6p0-3h6p0-----------------------||

D |--------------------------------------------------------------||
A |--------------------------------------------------------------||
F |--------------------------------------------------------------||
C |---0-3-0-3-0-3-0-3-6-0---0--3h6p0---6p0-----------------------||
G |---0-3-0-3-0-3-0-3-6-0---0--3h6p0---6p0-----------------------||
C |---0-3-0-3-0-3-0-3-6-0---0--3h6p0---6p0-----------------------||

D |--------------------------------------------------------------||
A |--------------------------------------------------------------||
F |--------------------------------------------------------------||
C |---0-3-0-3-0-3-0-3-6-0---0--3h6p0-3h6p0-----------------------||
G |---0-3-0-3-0-3-0-3-6-0---0--3h6p0-3h6p0-----------------------||
C |---0-3-0-3-0-3-0-3-6-0---0--3h6p0-3h6p0-----------------------||

4th time:
                                       *bend this note slightly
D |--------------------------------------------------------------||
A |--------------------------------------------------------------||
F |--------------------------------------------------------------||
C |---0-3-0-3-0-3-0-3-6-0---0--3h6p0---6-------------------------||
G |---0-3-0-3-0-3-0-3-6-0---0--3h6p0---6-------------------------||
C |---0-3-0-3-0-3-0-3-6-0---0--3h6p0---6-------------------------||

1st Verse:
                                    *punctuate these chords
D |--------------------------------------------------------------||
A |--------------------------------------------------------------||
F |---------------------------------4--4--4--4-------------------||
C |---------------------------------3--3--3--3-------------------||
G |---2-2-2-2---0--3--0--2-2-2-2---------------------------------||
C |---2-2-2-2---0--3--0--2-2-2-2---------------------------------||
p.m.  . . . .   .  .  .  . . . . 

D |--------------------------------------------------------------||
A |--------------------------------------------------------------||
F |---------------------------------4--4--4--4-------------------||
C |---------------------------------3--3--3--3-------------------||
G |---2-2-2-2---0--6-3---2-2-2-2---------------------------------||
C |---2-2-2-2---0--6-3---2-2-2-2---------------------------------||
p.m.  . . . .   .        . . . . 

D |--------------------------------------------------------------||
A |--------------------------------------------------------------||
F |---------------------------------4--4--4--4-------------------||
C |---------------------------------3--3--3--3-------------------||
G |---2-2-2-2---0--3--0--2-2-2-2---------------------------------||
C |---2-2-2-2---0--3--0--2-2-2-2---------------------------------||
p.m.  . . . .   .  .  .  . . . . 

D |--------------------------------------------------------------||
A |--------------------------------------------------------------||
F |---------------------------------4--4--4-4-4-4/7-7-7-7--------||
C |---------------------------------3--3--3-3-3-3/6-6-6-6--------||
G |---2-2-2-2---0--6-3---2-2-2-2---------------------------------||
C |---2-2-2-2---0--6-3---2-2-2-2---------------------------------||

1st Chorus:

D |--------------------------------------------------------------||
A |--------------------------------------------------------------||
F |--------------------------------------------------------------||
C |---0-3-0-3-0-3-0-3-6-0---0--3h6p0-3h6p0-----------------------||
G |---0-3-0-3-0-3-0-3-6-0---0--3h6p0-3h6p0-----------------------||
C |---0-3-0-3-0-3-0-3-6-0---0--3h6p0-3h6p0-----------------------||

D |--------------------------------------------------------------||
A |--------------------------------------------------------------||
F |--------------------------------------------------------------||
C |---0-3-0-3-0-3-0-3-6-0---0--3h6p0---6p0-----------------------||
G |---0-3-0-3-0-3-0-3-6-0---0--3h6p0---6p0-----------------------||
C |---0-3-0-3-0-3-0-3-6-0---0--3h6p0---6p0-----------------------||

D |--------------------------------------------------------------||
A |--------------------------------------------------------------||
F |--------------------------------------------------------------||
C |---0-3-0-3-0-3-0-3-6-0---0--3h6p0-3h6p0-----------------------||
G |---0-3-0-3-0-3-0-3-6-0---0--3h6p0-3h6p0-----------------------||
C |---0-3-0-3-0-3-0-3-6-0---0--3h6p0-3h6p0-----------------------||

4th time:
                                      
D |--------------------------------------------------------------||
A |--------------------------------------------------------------||
F |--------------------------------------------------------------||
C |---0-3-0-3-0-3-0-3-6-0---0--3h6p0---6-------------------------||
G |---0-3-0-3-0-3-0-3-6-0---0--3h6p0---6-------------------------||
C |---0-3-0-3-0-3-0-3-6-0---0--3h6p0---6-------------------------||

2nd Verse (Same as the first verse)

2nd Chorus (Same as the first except on the last time play this):

                                       
D |--------------------------------------------------------------||
A |--------------------------------------------------------------||
F |--------------------------------------------------------------||
C |---0-3-0-3-0-3-0-3-6-0------0-0-6-0-6-------------------------||
G |---0-3-0-3-0-3-0-3-6-0------0-0-6-0-6-------------------------||
C |---0-3-0-3-0-3-0-3-6-0------0-0-6-0-6-------------------------||
p.m.                           . .



D |--------------------------------------------------------------||
A |--------------------------------------------------------------||
F |--------------------------------------------------------------||
C |--------------------------------------------------------------||
G |---2-2-2-2--0-0--2-2-2-2--0-0--2-2-2-2--0-0--8-8-8-8-5-5-5-0--||
C |---2-2-2-2--0-0--2-2-2-2--0-0--2-2-2-2--0-0--8-8-8-8-5-5-5-0--||
p.m.  . . . .  . .  . . . .  . .  . . . .  . .  . . . . . . . .

D |--------------------------------------------------------------||
A |--------------------------------------------------------------||
F |--------------------------------------------------------------||
C |--------------------------------------------------------------||
G |---2-2-2-2--0-0--2-2-2-2--------------------------------------||
C |---2-2-2-2--0-0--2-2-2-2--0-0--2-2-2-2--0-0--8-6-5-5-6--------||
p.m.  . . . .  . .  . . . .    

D |--------------------------------------------------------------||
A |--------------------------------------------------------------||
F |---0-0-0-0-------0-0-0-0-------0-0-0-0------------------------||
C |---2-2-2-2----0--2-2-2-2----0--2-2-2-2----0--8-6-5-5-6--------||
G |---2-2-2-2----0--2-2-2-2----0--2-2-2-2----0--8-6-5-5-6--------||
C |---2-2-2-2----0--2-2-2-2----0--2-2-2-2----0--8-6-5-5-6--------||

D |--------------------------------------------------------------||
A |--------------------------------------------------------------||
F |---0-0-0-0-------0-0-0-0-------0-0-0-0------------------------||
C |---2-2-2-2----0--2-2-2-2----0--2-2-2-2----0--8-6-5h6-3--------||
G |---2-2-2-2----0--2-2-2-2----0--2-2-2-2----0--8-6-5h6-3--------||
C |---2-2-2-2----0--2-2-2-2----0--2-2-2-2----0--8-6-5h6-3--------||

Fill Riff 

D |--------------------------------------------------------------||
A |--------------------------------------------------------------||
F |--------------------------------------------------------------||
C |---2-2-2-2----------------------------------------------------||
G |---2-2-2-2----------------------------------------------------||
C |---2-2-2-2----------------------------------------------------||


D |--------------------------------------------------------------||
A |--------------------------------------------------------------||
F |--------------------------------------------------------------||
C |---2h5p2p0h2--5p2p0h2---0h2-0h2-0h2h5p2p0h2---2-2-2-2-0h2-----||
G |---2h5p2p0h2--5p2p0h2---0h2-0h2-0h2h5p2p0h2---2-2-2-2-0h2-----||
C |---2h5p2p0h2--5p2p0h2---0h2-0h2-0h2h5p2p0h2---2-2-2-2-0h2-----||

D |--------------------------------------------------------------||
A |--------------------------------------------------------------||
F |--------------------------------------------------------------||
C |---2-2-2-2-5p2p0h2---5p2p0h2---2-2-2-2-0h2h5p2p0h2------------||
G |---2-2-2-2-5p2p0h2---5p2p0h2---2-2-2-2-0h2h5p2p0h2------------||
C |---2-2-2-2-5p2p0h2---5p2p0h2---2-2-2-2-0h2h5p2p0h2------------||

D |--------------------------------------------------------------||
A |--------------------------------------------------------------||
F |--------------------------------------------------------------||
C |---8-6-5-5-3--------------------------------------------------||
G |---8-6-5-5-3--------------------------------------------------||
C |---8-6-5-5-3--------------------------------------------------||



D |--------------------------------------------------------------||
A |--------------------------------------------------------------||
F |--------------------------------------------------------------||
C |---2-5-2-0-2--5-2-0-2---0-2-0-2-0-2-5-2-0-2---2-2-2-2-0-2-----||
G |---2-5-2-0-2--5-2-0-2---0-2-0-2-0-2-5-2-0-2---2-2-2-2-0-2-----||
C |---2-5-2-0-2--5-2-0-2---0-2-0-2-0-2-5-2-0-2---2-2-2-2-0-2-----||

D |--------------------------------------------------------------||
A |--------------------------------------------------------------||
F |--------------------------------------------------------------||
C |---2-2-2-2-5-2-0-2---5-2-0-2---2-2-2-2-0-2-5-2-0-2------------||
G |---2-2-2-2-5-2-0-2---5-2-0-2---2-2-2-2-0-2-5-2-0-2------------||
C |---2-2-2-2-5-2-0-2---5-2-0-2---2-2-2-2-0-2-5-2-0-2------------||

D |--------------------------------------------------------------||
A |--------------------------------------------------------------||
F |--------------------------------------------------------------||
C |---8-6-5-5-3--------------------------------------------------||
G |---8-6-5-5-3--------------------------------------------------||
C |---8-6-5-5-3--------------------------------------------------||

Pre-Chorus Riff:

D |--------------------------------------------------------------||
A |--------------------------------------------------------------||
F |--------------------------------------------------------------||
C |--------------------------------------------------------------||
G |--------------------------------------------------------------||
C |---2-2-2-2--3-3-3-3--5-5-5-5--8-8-8-8-------------------------|| x8

Final Chorus:
                        
D |--------------------------------------------------------------||
A |--------------------------------------------------------------||
F |--------------------------------------------------------------||
C |---0-3-0-3-0-3-0-3-6-0~~~~--3h6p0-3h6p0-----------------------||
G |---0-3-0-3-0-3-0-3-6-0~~~~--3h6p0-3h6p0-----------------------||
C |---0-3-0-3-0-3-0-3-6-0~~~~--3h6p0-3h6p0-----------------------||





D |--------------------------------------------------------------||
A |--------------------------------------------------------------||
F |--------------------------------------------------------------||
C |---0-3-0-3-0-3-0-3-6-0~~~~--3h6p0---6p0-----------------------||
G |---0-3-0-3-0-3-0-3-6-0~~~~--3h6p0---6p0-----------------------||
C |---0-3-0-3-0-3-0-3-6-0~~~~--3h6p0---6p0-----------------------||



D |--------------------------------------------------------------||
A |--------------------------------------------------------------||
F |--------------------------------------------------------------||
C |---0-3-0-3-0-3-0-3-6-0~~~~--3h6p0-3h6p0-----------------------||
G |---0-3-0-3-0-3-0-3-6-0~~~~--3h6p0-3h6p0-----------------------||
C |---0-3-0-3-0-3-0-3-6-0~~~~--3h6p0-3h6p0-----------------------||






D |--------------------------------------------------------------||
A |--------------------------------------------------------------||
F |--------------------------------------------------------------||
C |---0-3-0-3-0-3-0-3-6-0----------------------------------------||
G |---0-3-0-3-0-3-0-3-6-0----------------------------------------||
C |---0-3-0-3-0-3-0-3-6-0----------------------------------------||





Comments


Popular Mudvayne tabs & chords
All That You Are 1 Bass Tabs
Scarlet Letters 2 Bass Tabs
Silenced Bass Tabs
Trapped In The Wake Of A Dream Bass Tabs
Closer Intro Tabs
Cultivate Tabs
Dig 10 Tabs
Prod Intro Tabs
Rain Sun Gone Intro Tabs
Shadow Of A Man 1 Tabs


Song lyrics



↑ Back to top | Tablatures and chords are parodies/interpretations of the original songs. You may use it for private study, scholarship, research or language learning purposes only
© 2014 AZChords.com Contact us | Privacy policy | DMCA | Add/correct tabs | Request tabs | Top 50 tabs