>
 >
Determined

Determined Bass Tabs

Mudvayne - Determined chords, tabs, tablatures, lyrics

Guitar lessons | Add/correct | Request | Top 50 tabs Artists:  A B C D E F G H I J K L M N O P Q R S T U V W X Y Z 0-9

Determined Bass Tabs – Mudvayne

CD, Sheet music, Poster

Do you like Determined? Share with your friends now
Bass TabsBass Tabs v2Bass Tabs v3TabsTabs v2Tabs v3
Mudvayne - Determined 

tuning (low to high) - C G C F

Riff 1 x1
    ssss Q H    ssss Q H    ssss Q H    ssssQ  e E  q
|-------------|-----------|-----------|------------------|
|4------------|-----------|-----------|------------------|
|4------------|-----------|-----------|------------------|
|---2222------|-2222------|-2222------|-2222--/14--/15^--|
                                         Fill 1 x1       (    6    )
  ssssssss ssss ssss                       ssssssss ssss s s s s s s 
|--------------------|--------|--------| |-----------------------------|
|--------------------|--bass--|--bass--| |-----------------------------|
|--------------------|-simile-|-simile-| |-----------------------------|
|-22223333/5555/8888-|--------|--------| |-22223333/5555/171717171717/-|

Riff 2 x4
  e e e e e e e e    e e e e  e e  e e 
|-----------------|--------------------|
|-0-3-0-3-0-3-0-3-|-/6-0-X-0-/6-0-/6-0-|
|-----------------|--------------------|
|-0-3-0-3-0-3-0-3-|-/6-0-X-0-/6-0-/6-0-|

Riff 3 x1
  ssssE e e e ssss  E sssssss ssss sss   ssssE e e e e ssss  E sssssss ssss s e
|------------------|-------------------|--------------------|--------------------|
|------------------|-------------------|--------------------|--------------------|
|------------------|-------------------|--------------------|--------------------|
|-2222--0-2-0-2230-|--3333333h5555h666-|-2222--0-2h5-2-2320-|--6666666h7777h9-9\-|

  ssssE e e e ssss  E sssssss ssss sss   ssssE e e e ssssss    s  s sssssss sss e.
|------------------|-------------------|--------------------|-----------------------|
|------------------|-------------------|--------------------|-----------------------|
|------------------|-------------------|--------------------|-----------------------|
|-2222--0-2-0-2230-|--3333333h5555h666-|-2222--0-2h5-222320-|-(0)h2/6666666h777/15^-|

Riff 2 x4

Riff 3 x1

Riff 2 x1

Riff 2 Variation x1
  e e e e e e e e    e e e e  e e  q
|-----------------|--------------------|
|-0-3-0-3-0-3-0-3-|-/6-0-X-0-/6-0-/15--|
|-----------------|--------------------|
|-0-3-0-3-0-3-0-3-|-/6-0-X-0-/6-0-/15--|

Riff 2 x1

Riff Variation x1
  e e e e e e e e    e e E ss e e  q
|-----------------|-------------------|
|-0-3-0-3-0-3-0-3-|-/6-0---00/6-0-/6--|
|-----------------|-------------------|
|-0-3-0-3-0-3-0-3-|-/6-0---00/6-0-/6--|

Riff 4 x1
  ssssQ ssssQ   ssss Q H    ssssQ ssssQ   ssssE ssssssss ss
|-------------|-----------|-------------|-------------------|
|-------------|-----------|-------------|-------------------|
|-------------|-----------|-------------|-------------------|
|-2222--2222--|-2222------|-2222--2222--|-2222--00887788\33-|

  ssssE ssssssE ss   ssssE ss ssssssss   ssssE ssssssE ss    ssssE ss ssssss ssssss
|------------------|-------------------|------------------|-------------------------|
|------------------|-------------------|------------------|5------------------------|
|------------------|-------------------|------------------|4------------------------|
|-2222--002222--00-|-2222--00/88775577-|-2222--002222--00-|--2222--00/887788\332222-|

   ssssE ssssE ssss   ssssssE ssssssE   ssssssssE ssssE    ssssssssssE  sssss sss
|-------------------|-----------------|-----------------|-------------------------|
|4------------------|-----------------|-----------------|5------------------------|
|4------------------|-----------------|-----------------|4------------------10----|
|--5202--5202--5202-|-025202--520202--|-22225202--5202--|--5202025202--/8777--778-|

Riff 1 x1

Fill 2 x1  (    6    ) (    6    )
  ssssssss s s s s s s s s s s s s     s E. Q
|-----------------------------------|---------|
|-----------------------------------|2--------|
|-----------------------------------|4--------|
|-22223333/171717171717171717171717-|--17-----|

Riff 2 x3

Riff 2 Variation x1
  e e e e e e e e   e e e e e  e  q      e e e e e e e e    e q  e  e e  e e
|-----------------|--------------------|-----------------|-------------------|
|-0-3-0-3-0-3-0-3-|-6-0-X-6/12-11-10\--|-0-3-0-3-0-3-0-3-|-/6-0--0-/6-0-/6-0-|
|-----------------|--------------------|-----------------|-------------------|
|-0-3-0-3-0-3-0-3-|-6-0-X-6/12-11-10\--|-0-3-0-3-0-3-0-3-|-/6-0--0-/6-0-/6-0-|

  e e e e e e e e    e q  e  e e  q     e e e e e e e e    e q  e  e e  e e
|-----------------|-------------------|-----------------|-------------------|
|-0-3-0-3-0-3-0-3-|-/6-0--0-/6-0-/15--|-0-3-0-3-0-3-0-3-|-/6-0--0-/6-0-/6-0-|
|-----------------|-------------------|-----------------|-------------------|
|-0-3-0-3-0-3-0-3-|-/6-0--0-/6-0-/15--|-0-3-0-3-0-3-0-3-|-/6-0--0-/6-0-/6-0-|

  e e e e e e e e    e e Q H
|-----------------|------------||
|-----------------|------------||
|-----------------|------------||
|-0-3-0-3-0-3-0-3-|-/6-0-------||





Comments


Popular Mudvayne tabs & chords
A Cinderella Story 1 Bass Tabs
Internal Primates Forever Bass Tabs
Negative One 1 Bass Tabs
Not Falling 3 Bass Tabs
The End Of All Things To Come Bass Tabs
12:97:24:99 Tabs
Cradle Tabs
Dig 10 Tabs
Imn 1 Tabs
Under My Skin 2 Tabs


Song lyrics



↑ Back to top | Tablatures and chords are parodies/interpretations of the original songs. You may use it for private study, scholarship, research or language learning purposes only
© 2014 AZChords.com Contact us | Privacy policy | DMCA | Add/correct tabs | Request tabs | Top 50 tabs