» » »

Mudvayne, Cradle Tabs (ver.2)

Artists:  A B C D E F G H I J K L M N O P Q R S T U V W X Y Z # 

Cradle Tabs (ver.2)

Mudvayne Tabs
 Rating:
3.4/5 (10 votes)
Cradle lessons Tabs too difficult? Try these video lessons and learn fast
                
Tuning: Drop D, Down 1 1/2 Steps (B,F#,B,E,G#,C#)

h - hammer on
p - pull off
/ - slide

VERSE: (w/ effect)
|-------------------------------------------------|
|-------------------------------------15-15-15-15-|
|-------------------------------------------------|
|-13p12-12-13p12-12-13p12-12-13p12-12-------------|
|-------------------------------------------------|
|-------------------------------------------------|

BRIDGE:
|------------------------------|
|------------------------------|
|----------------------------7-|
|-1-0-0-1-0-0-0-0--1-0-0-1-0-7-|
|-1-0-0-1-0-0-0-0--1-0-0-1-0-5-|
|-1-0-0-1-0-0-0-0--1-0-0-1-0---|

BRIDGE: (listen for timing)
|---------------------------------|
|---------------------------------|
|---------------------------------|
|---------------------------------|
|-110-110-110-110-110-110-110-110-|
|-110-110-110-110-110-110-110-110-|

INTERLUDE:
|----------------------------------------------------|
|----------------------------------------------------|
|----------------------------------------------------|
|-----------------5/7--7/8---------------5/7-----7/8-|
|-4-3-0-1-3-0-3-4-3/5--5/6-4-3-0-X-X-X-X-3/5-X-X-5/6-|
|-4-3-0-1-3-0-3-4----------4-3-0-X-X-X-X-----X-X-----|

INTERLUDE 2:
|-------------------------------|
|-------------------------------|
|-------------------------------|
|-------------------------------|
|-------------3-------5---6p5---|
|-0-3-4-0-4-5---5-0-4---4-----5-|

INTERLUDE 3: (palm mute)
|-----------------|
|-----------------|
|-----------------|
|-----------------|
|-5-5-5-5-5-5-5-5-|
|-----------------|

INTERLUDE 4:
|-------------------------------|
|-------------------------------|
|-------------------------------|
|-------------------------------|
|-0-3-4-0-4-5-3-5-0-3-4-0-6-5-4-|
|-0-3-4-0-4-5---5-0-3-4-0-6-5-4-|

INTERLUDE 5:
|-------------------------------|
|-------------------------------|
|-------------------------------|
|-------------------------------|
|-0-3-4-0-4-5-3-5-0-3-4-0-6-5-4-|
|-0-3-4-0-4-5---5-0-3-4-0-6-5-4-|
PM. . . . . .   . . . . . . . .

INTERLUDE 6: (palm mute)
|---------------------|
|---------------------|
|---------------------|
|---------------------|
|-0--3--5--0--0-5h6-6-|
|-0--3--5--0--0-5h6-6-|

INTERLUDE 6 FILL: (palm mute)
|-------------------|
|-------------------|
|-------------------|
|-------------------|
|-0--3--5--X-X--X-X-|
|-0--3--5--X-X--X-X-|


INTERLUDE 7:
|---------------------|
|---------------------|
|---------------------|
|---------------------|
|-0--3--5--0--0-5h6-6-|
|-0--3--5--0--0-5h6-6-|

INTERLUDE 7 FILL:
|-------------------|
|-------------------|
|-------------------|
|-------------------|
|-0--3--5--X-X--X-X-|
|-0--3--5--X-X--X-X-|

INTERLUDE 5: (palm mute)
|----------------------------------|
|----------------------------------|
|----------------------------------|
|----------------------------------|
|-5-4-0-0-4-3-0-0--5-4-0-0-4-3-0-0-|
|-5-4-0-0-4-3-0-0--5-4-0-0-4-3-0-0-|

OUTRO:
|---------------|
|---------------|
|---------------|
|-0-0--0-0--0-0-|
|-0-0--0-0--0-0-|
|-0-0--0-0--0-0-|
            
Submit corrections

comments powered by Disqus
↑ Back to top | Mudvayne Tabs for Cradle. Lyrics for acoustic guitar and electric guitar. Tablatures and chords are parodies/interpretations of the original songs. You may use it for private study, scholarship, research or language learning purposes only