>
 >
Cradle 2

Cradle 2 Bass Tabs

Mudvayne - Cradle 2 chords, tabs, tablatures, lyrics

Guitar lessons | Add/correct | Request | Top 50 tabs Artists:  A B C D E F G H I J K L M N O P Q R S T U V W X Y Z 0-9

Cradle 2 Bass Tabs – Mudvayne

CD, Sheet music, Poster

Do you like Cradle 2? Share with your friends now
Bass TabsBass Tabs v2Bass Tabs v3TabsTabs v2Tabs v3Tabs v4
-----------------------------------------------------------------------------------------------
  
  Artist - MuDvAyNe
  Album  - L.D.50 (2000)
  Song   - Cradle
  Tabbed - Jakob Jugovic
  Year   - 2009

-----------------------------------------------------------------------------------------------

  TUNING:

  G
  D
  A
  E
  B

  p - pull
  h - hammer on
  / - slide upwards
  \ - slide downwards
  x - ghost note
  X - left hand ghost note
  S - slapping 
  F - 'fingerslapping'
  T - tapping - {#} base-note
  P - popping
  ~ - vibrato
  o - 1/4 (timescale)

-----------------------------------------------------------------------------------------------


  CHORUS:

    o . . . o . . . o . . . o . . .     
G |-----------------------------4---|
D |---------------------------------|
A |-----------------------------2---|  x4
E |---------------------------------|
B |-1-0-0-1-0-0-0---x-1-0-0-1-x-----|
    F F F F F F F   F F F F F S P


  INTRO:

    o . . . o . . . o . . . o . . .     
G |-x-------------------------------|
D |-x-------------------------------|
A |-x-------------------------------|
E |-x-------------------------------|
B |-x-------------------------------|
    S


    o . . . o . . . o . . . o . . .      
G |-x-----x-------------------------|
D |-x-----x-------------------------|
A |-x-----x-------------------------|
E |-x-----x-------------------------|
B |-x-----x-------------------------|
    S     S


    o . . . o . . . o . . . o . . .     
G |-x-----x-----x-------------------|
D |-x-----x-----x-------------------|
A |-x-----x-----x-------------------|
E |-x-----x-----x-------------------|
B |-x-----x-----x-------------------|
    S     S     S


    o . . . o . . . o . . . o . . .      
G |-x-----x-----x-----x-------------|
D |-x-----x-----x-----x-------------|
A |-x-----x-----x-----x-------------|
E |-x-----x-----x-----x-------------|
B |-x-----x-----x-----x-------------|
    S     S     S     S


  CHORUS:

    o . . . o . . . o . . . o . . .     
G |-----------------------------4---|
D |---------------------------------|
A |-----------------------------2---|  x4
E |---------------------------------|
B |-1-0-0-1-0-0-0---x-1-0-0-1-x-----|
    F F F F F F F   F F F F F S P


  VERSE:

    o . . . o . . . o . . . o . . . o . . . o . . . o . . . o . . . 
G |-------------------------------------------------------------5\--|
D |-----------------------------------------------------------------|
A |-------------------------------------------------------------3\--|
E |-----------------------------------------------------------------|
B |-010---010---0101010---010---0101010---010---0101010---/60-x-----|
    ShS   ShS   ShShShS   ShS   ShShShS   ShS   ShShShS   S S S P


    o . . . o . . . o . . . o . . . o . . . o . . . o . . . o . . . 
G |-----------------------------------------------------------------|
D |-----------------------------------------------------------------|
A |-----------------------------------------------------------------|
E |-----------------------------------------------------------------|
B |-010---010---0101010---010---0101010---010---0101010---010---010-|
    ShS   ShS   ShShShS   ShS   ShShShS   ShS   ShShShS   ShS   ShS



    o . . . o . . . o . . . o . . . o . . . o . . . o . . . o . . .     _
G |-----------------------------------------------------------------|    |
D |-------------------7/9---9/10\-------------x-----7/9-----9/10----|    |
A |-----------------------------------------------------------------|    |
E |-------------------5/7---7/8\--------------------5/7-----7/8-----|    |
B |-4\3-0-3p0-0-2h3-x-----x---------4\3-0h3-x---x-x-----x-x-x-x-x-x-|    |
    S   S S   S S   S P   S P       S   S   S P S S P   S P S P S P      |
                                                                         |  x2
                                                                         |
    o . . . o . . . o . . . o . . . o . . . o . . . o . . . o . . .      |
G |-----------------------------------------------------------------|    |
D |-------------------7/9---9/10\-------------x-----7/9-------------|    |
A |-----------------------------------------------------------------|    |
E |-------------------5/7---7/8\--------------------5/7-------------|    |
B |-4\3-0-3p0-0-2h3-x-----x---------4\3-0h3-x---x-x-----x-x-x-x-x-x-|   _| 
    S   S S   S S   S P   S P       S   S   S P S S P   S P S P S P


    o . . . o . . . o . . . o . . . o . . . o . . . o . . . o . . . 
G |-------------------------------------------------------------5\--|
D |-----------------------------------------------------------------|
A |-------------------------------------------------------------3\--|
E |-----------------------------------------------------------------|
B |-010---010---0101010---010---0101010---010---0101010---/60-x-----|
    ShS   ShS   ShShShS   ShS   ShShShS   ShS   ShShShS   S S S P


    o . . . o . . . o . . . o . . . o . . . o . . . o . . . o . . . 
G |-----------------------------------------------------------------|
D |----------------------------------------------------0--0----0--0-|
A |-----------------------------------------------------------------|
E |-----------------------------------------------------------------|
B |-010---010---0101010---010---0101010---010---01010Xx-Xx-X0Xx-Xx-X|
    ShS   ShS   ShShShS   ShS   ShShShS   ShS   ShShS SP SP S SP SP


    o . . . o . . . o . . . o . . . o . . . o . . . o . . . o . . . 
G |-----------------------------------------------------------------|
D |-----------------------------------------------------------------|
A |-----------------------------------------------------------------|
E |-----------------------------------------------------------------|
B |-010---010---0101010---010---0101010---010---0101010---010---010-|
    ShS   ShS   ShShShS   ShS   ShShShS   ShS   ShShShS   ShS   ShS


    o . . . o . . . o . . . o . . . 
G |---------------------------------|
D |---------------------------------|
A |---------------------------------|
E |---------------------------------|
B |-----------------1////////////6--|


    o . . . o . . . o . . . o . . . 
G |---------------------------------|
D |---------------------------------|
A |-------------2-----3-----3\2-----|  x7
E |---------------------------------|
B |-0-1h2-0-3h4---4\3---4\3-----3/4-|
    S S   S S   S S   S S   S   S


    o . . . o . . . o . . . o . . .     
G |---------------------------------|
D |---------------------------------|
A |-------------2-------------------|  x8
E |---------------------------------|
B |-0-1-2-0-3-4---4-3-5-4-3-6-5-4~--|
    F F F F F F F F F F F F F F F


    o . . . o . . . o . . . o . . .     
G |---------------------------------|
D |---------------------------------|
A |---------------------------------|  x3
E |---------------------------------|
B |-0-----3-----5-----0---0-5^6-0---|
    F     F     F     F   F F   F


    o . . . o . . . o . . . o . . .      
G |---------------------------------|
D |-------------------------x-------|
A |---------------------------------|
E |---------------------------------|
B |-0-----3-----5---x-x--------x----|
    F     F     F   S S     P  S


  OTHER PART:

    o . . . o . . . o . . . o . . .
G |-4-----2-----1-------------------|
D |-4-----2-----1-------------------|
A |-2-----0-------------------------|
E |---------------------------------|
B |-------------------0---0-5^6-0---|
                      F   F F   F


    o . . . o . . . o . . . o . . .
G |-4-----7-----9-------------------|
D |-4-----7-----9-------------------|
A |-2-----5-----7-------------------|
E |---------------------------------|
B |-------------------0---0-5^6-0---|
                      F   F F   F


    o . . . o . . . o . . . o . . .
G |-4-----2-----1-------------------|
D |-4-----2-----1-------------------|
A |-2-----0-------------------------|
E |---------------------------------|
B |-------------------0---0-5^6-0---|
                      F   F F   F


    o . . . o . . . o . . . o . . .
G |-4-----7-----9-------------------|
D |-4-----7-----9-----------x-------|
A |-2-----5-----7-------------------|
E |---------------------------------|
B |-----------------x-x-------x-----|
                    S S     P S


    o . . . o . . . o . . . o . . .
G |-4-----2-----1-------------------|
D |-4-----2-----1-------------------|
A |-2-----0-------------------------|
E |---------------------------------|
B |-------------------0---0-5^6-0---|
                      F   F F   F


    o . . . o . . . o . . . o . . .
G |-4-----7-----9-------------------|
D |-4-----7-----9-------------------|
A |-2-----5-----7-------------------|
E |---------------------------------|
B |-----------------x--x--x-x--x--x-|
                    S  S  S S  S  S


    o . . . o . . . o . . . o . . .
G |-4-----2-----1-------------------|
D |-4-----2-----1-------------------|
A |-2-----0-------------------------|
E |---------------------------------|
B |-------------------0---0-5^6-0---|
                      F   F F   F


    o . . . o . . . o . . . o . . .
G |-4-----7-----9-------------------|
D |-4-----7-----9-------------------|
A |-2-----5-----7-------------------|
E |---------------------------------|
B |-----------------0-0-----0-------|
                    S S     S


  BRIDGE:

    o . . . o . . . o . . . o . . .    
G |---------------------------------|
D |-------2p1-----------------------|
A |-3p2-------2h3p2-2---------------|
E |---------------------------------|
B |-----x-------------x-x-0---0---0-|
    S   S S   S     S S S S   S   S


    o . . . o . . . o . . . o . . .    
G |---------------------------------|
D |-------2p1-----------------------|
A |-3p2-------2h3~~~2---------------|
E |---------------------------------|
B |-----x---------------x-x-x---0-xx|
    S   S S   S         S S S S P


    o . . . o . . . o . . . o . . .    
G |---------------------------------|
D |-------2p1-----------------------|
A |-3p2-------2h3p2-2---------------|
E |---------------------------------|
B |-----x-------------x-x-0---0---x-|
    S   S S   S     S S S S   S   S


    o . . . o . . . o . . . o . . .    
G |---------------------------------|
D |-------2p1-----------------------|
A |-3p2-------2h3~~~2---------------|
E |---------------------------------|
B |-----x---------------x-x-x-x-x---|
    S   S S   S         S S S S S


    o . . . o . . . o . . . o . . .    
G |---------------------------------|
D |-------2p1-----------------------|
A |-3p2-------2h3p2-2---------------|
E |---------------------------------|
B |-----x---------------x-0---0---x-|

    o . . . o . . . o . . . o . . .    
G |-----------------------------4---|
D |-------2p1-----------------------|
A |-3p2-------2h3~~~2-------------2-|
E |---------------------------------|
B |-----x---------------x-x-x-------|

    o . . . o . . . o . . . o . . .    
G |---------------------------------|
D |-------2p1-----------------------|
A |-3p2-------2h3p2-2---------------|
E |---------------------------------|
B |-----x---------------x-0---0---x-|

    o . . . o . . . o . . . o . . .    
G |---------------------------------|
D |-------2p1-----------------------|
A |-3p2-------2h3~~~~~~~~~~~~-------|
E |---------------------------------|
B |-----x---------------------------|


  END:

    o . . . o . . . o . . . o . . .     
G |---------------------------------|
D |---------------------------------|
A |---------------------------------|
E |---------------------------------|
B |-5-4-3-0-4-3-0-0-5-4-3-0-4-3-0-0-|
    F F F F F F F F F F F F F F F F


    o . . . o . . . o . . . o . . . 
G |---------------------------------|
D |---------------------------------|
A |---------------------------------|
E |---------------------------------|
B |-010---010-----010---------------|
    ShS   ShS     ShS





Comments


Popular Mudvayne tabs & chords
All That You Are 1 Bass Tabs
Do What You Do 2 Bass Tabs
-1 3 Tabs
Diggg 1 Tabs
Forget To Remeber Tabs
Pharmaecopia 1 Tabs
Severed Tabs
Trapped In The Wake Of A Dream 1 Tabs
Under My Skin Tabs
Your Puppet N Clown Tabs


Song lyrics



↑ Back to top | Tablatures and chords are parodies/interpretations of the original songs. You may use it for private study, scholarship, research or language learning purposes only
© 2014 AZChords.com Contact us | Privacy policy | DMCA | Add/correct tabs | Request tabs | Top 50 tabs