» » »

Closer Tabs (ver.1)

Artists:  A B C D E F G H I J K L M N O P Q R S T U V W X Y Z # 

Closer Tabs (ver.1)

Mudvayne
Rating:
1/5 (2 votes)

Hard to play? Try these video lessons and learn fast.
                (Intro)

I've looked at other tabs and what I haven't seen (and what I swear I'm hearing in 
the song itself) is
hammering in the intro, besides the muted chord part. So here's my simpler version with hammer
ons/pull offs.

Please comment about the muted chord part because I'm not sure if I have that part right...(I'm
pretty sure it's wrong)



Drop the D-string to C, Tap everything (no strumming all hammer ons/pull offs)
E|--------------------------------------------------------|
B|--------------------------------------------------------|
G|--------------------------------------------------------|
C|---5-0-5-0-5-0-5-0-5-0-5-0---9-5-0-5---4-0-4-0-4-0-4-0--|
A|--------------------------------------------------------|
E|--------------------------------------------------------|
****For the 9-5-0-5 part I use my other hand to hammer on 9 while keeping my left hand on 5  i.e.
h9p5p0h5   (p= pull off  h= hammer on)

Muted
E|--------------------------------------------------------|
B|--------------------------------------------------------|
G|--------------------------------------------------------|
C|--------------------------------------------------------|
A|-------8-7-5-8----7-5-3-7-------------------------------|
E|-------8-7-5-8----7-5-3-7-------------------------------|

Tapping again
E|---------------------------------------------------------------------|
B|---------------------------------------------------------------------|
G|---------------------------------------------------------------------|
C|5-0-5-0-5-0-5-0-5-0-5-0---9-5-0-5---4-0-4-0-4-0-4-0---2-0-2-0-2-0-2-0|
A|---------------------------------------------------------------------|
E|---------------------------------------------------------------------|

Then everything repeats
            
Hard to play? Try these video lessons and learn fast. | Correct




comments powered by Disqus
↑ Back to top | Tablatures and chords are parodies/interpretations of the original songs. You may use it for private study, scholarship, research or language learning purposes only