» » »

Mudvayne, Closer Tabs (ver.2)

Artists:  A B C D E F G H I J K L M N O P Q R S T U V W X Y Z # 

Closer Tabs (ver.2)

Mudvayne Tabs
 Rating:
4/5 (4 votes)
Closer lessons Tabs too difficult? Try these video lessons and learn fast
1
                Closer By Mudvayne




Pretty straighforward and rocking song from Mudvayne, had to learn this by ear 'cause I
couldn't find a decent tab. Also first tab from me, so I hope you like it.


Drop C tuning like most of Mudvayne songs




Intro

|--------------------------------------------------------------------------------|
|--------------------------------------------------------------------------------|
|--------------------------------------------------------------------------------|
|--------------------------------------------------------------0-4-2-0-2-4-2-0-2-|
|--------------------------------15----------------------------0-4-2-0-2-4-2-0-2-|
|--17-0-17-0-17-0-17-0-17-0-17-0----17-16-17-16-0-16-0-16-0-16-0-4-2-0-2-4-2-0-2-|
P.M                                                            . . . . . . . . .
 
|----------------------------------------------------------------------------------|
|----------------------------------------------------------------------------------|
|----------------------------------------------------------------------------------|
|----------------------------------------------------------------------------------|
|--------------------------------15------------------------------------------------|
|--17-0-17-0-17-0-17-0-17-0-17-0----17-16-17-16-0-16-0-16-0-16-0-14-0-14-0-14-0-14-|
                                                                   
                                                                             Repeat


Verse

|----------------------------------------------|--------------------------------------|
|----------------------------------------------|--------------------------------------|
|----------------------------------------------|--------------------------------------|
|--5-5-5-5-5-5---5-4-5-4-4-4-4-4-2-0-2-4-2-0-2-|--5-5-5-5-5-5---5-4-5-4-4-4-4-2-2-2-2-|
|--5-5-5-5-5-5-3-5-4-5-4-4-4-4-4-2-0-2-4-2-0-2-|--5-5-5-5-5-5-3-5-4-5-4-4-4-4-2-2-2-2-|
|--5-5-5-5-5-5---5-4-5-4-4-4-4-4-2-0-2-4-2-0-2-|--5-5-5-5-5-5---5-4-5-4-4-4-4-2-2-2-2-|
P.M                            . . . . . . . .

|----------------------------------------------|-----------------------------------------------|
|----------------------------------------------|-----------------------------------------------|
|----------------------------------------------|-----------------------------------------------|
|--5-5-5-5-5-5---5-4-5-4-4-4-4-4-2-0-2-4-2-0-2-|--5-5-5-5-5-5---5-4-5-4-4-4-4-2-2--------------|
|--5-5-5-5-5-5-3-5-4-5-4-4-4-4-4-2-0-2-4-2-0-2-|--5-5-5-5-5-5-3-5-4-5-4-4-4-4-2-2--------------|
|--5-5-5-5-5-5---5-4-5-4-4-4-4-4-2-0-2-4-2-0-2-|--5-5-5-5-5-5---5-4-5-4-4-4-4-2-2-/12-12-12-12-|
P.M                            . . . . . . . .



Chorus

|--------------------------------------------------------------------------------------|
|--------------------------------------------------------------------------------------|
|--------------------------------------------------------------------------------------|
|--------------------------------------------------------------------------------------|
|--------------------------------15----------------------------------------------------|
|--17-0-17-0-17-0-17-0-17-0-17-0----17-16-17-16-0-16-0-16-0-16-0-16-0-16-0-16-17-17-17-|

|--------------------------------------------------------------------------------------|
|--------------------------------------------------------------------------------------|
|--------------------------------------------------------------------------------------|
|--------------------------------------------------------------------------------------|
|--------------------------------------------------------------------------------------|
|--14-0-14-0-14-0-14-0-14-0-14-0-14-16-16-16-12-0-12-0-12-0-12-0-12-0-12-0-12-10-10-10-|

|--------------------------------------------------------------------------------------|
|--------------------------------------------------------------------------------------|
|--------------------------------------------------------------------------------------|
|--------------------------------------------------------------------------------------|
|--------------------------------15----------------------------------------------------|
|--17-0-17-0-17-0-17-0-17-0-17-0----17-16-17-16-0-16-0-16-0-16-0-16-0-16-0-16-17-17-17-|

|--------------------------------------------------------------------------------------|
|--------------------------------------------------------------------------------------|
|--------------------------------------------------------------------------------------|
|--------------------------------------------------------------------------------------|
|--------------------------------------------------------------------------------------|
|--14-0-14-0-14-0-14-0-14-0-14-0-14-16-16-16-12-0-12-0-12-0-12-0-12-0-12-0-12-17-17-17-|



Verse

|----------------------------------------------|--------------------------------------|
|----------------------------------------------|--------------------------------------|
|----------------------------------------------|--------------------------------------|
|--5-5-5-5-5-5---5-4-5-4-4-4-4-4-2-0-2-4-2-0-2-|--5-5-5-5-5-5---5-4-5-4-4-4-4-2-2-2-2-|
|--5-5-5-5-5-5-3-5-4-5-4-4-4-4-4-2-0-2-4-2-0-2-|--5-5-5-5-5-5-3-5-4-5-4-4-4-4-2-2-2-2-|
|--5-5-5-5-5-5---5-4-5-4-4-4-4-4-2-0-2-4-2-0-2-|--5-5-5-5-5-5---5-4-5-4-4-4-4-2-2-2-2-|
P.M                            . . . . . . . .

|----------------------------------------------|-----------------------------------------------|
|----------------------------------------------|-----------------------------------------------|
|----------------------------------------------|-----------------------------------------------|
|--5-5-5-5-5-5---5-4-5-4-4-4-4-4-2-0-2-4-2-0-2-|--5-5-5-5-5-5---5-4-5-4-4-4-4-2-2--------------|
|--5-5-5-5-5-5-3-5-4-5-4-4-4-4-4-2-0-2-4-2-0-2-|--5-5-5-5-5-5-3-5-4-5-4-4-4-4-2-2--------------|
|--5-5-5-5-5-5---5-4-5-4-4-4-4-4-2-0-2-4-2-0-2-|--5-5-5-5-5-5---5-4-5-4-4-4-4-2-2-/12-12-12-12-|
P.M                            . . . . . . . .



Chorus

|--------------------------------------------------------------------------------------|
|--------------------------------------------------------------------------------------|
|--------------------------------------------------------------------------------------|
|--------------------------------------------------------------------------------------|
|--------------------------------15----------------------------------------------------|
|--17-0-17-0-17-0-17-0-17-0-17-0----17-16-17-16-0-16-0-16-0-16-0-16-0-16-0-16-17-17-17-|

|--------------------------------------------------------------------------------------|
|--------------------------------------------------------------------------------------|
|--------------------------------------------------------------------------------------|
|--------------------------------------------------------------------------------------|
|--------------------------------------------------------------------------------------|
|--14-0-14-0-14-0-14-0-14-0-14-0-14-16-16-16-12-0-12-0-12-0-12-0-12-0-12-0-12-10-10-10-|

|--------------------------------------------------------------------------------------|
|--------------------------------------------------------------------------------------|
|--------------------------------------------------------------------------------------|
|--------------------------------------------------------------------------------------|
|--------------------------------15----------------------------------------------------|
|--17-0-17-0-17-0-17-0-17-0-17-0----17-16-17-16-0-16-0-16-0-16-0-16-0-16-0-16-17-17-17-|

|--------------------------------------------------------------------------------------|
|--------------------------------------------------------------------------------------|
|--------------------------------------------------------------------------------------|
|--------------------------------------------------------------------------------------|
|--------------------------------------------------------------------------------------|
|--14-0-14-0-14-0-14-0-14-0-14-0-14-16-16-16-12-0-12-0-12-0-12-0-12-0-12-0-12-17-17-17-|



Bridge

|------------------------------------------------------------------|
|------------------------------------------------------------------|
|------------------------------------------------------------------|
|------------------------------------------------------------------|
|------------------------------------------------------------------|
|--2-2-2-2-2-2-2-2-5-5-5-5-5-4-4-4-0-0-0-0-0-0-0-0-5-5-5-5-5-4-4-4-|

|------------------------------------------------------------------|
|------------------------------------------------------------------|
|------------------------------------------------------------------|
|------------------------------------------------------------------|
|------------------------------------------------------------------|
|--8-8-8-8-8-8-8-8-1-1-1-1-1-1-1-1-2-2-2-2-2-2-2-2-5-5-5-5-5-4-4-4-|

|--------------------------------------------------|--------------------------|
|--------------------------------------------------|--------------------------|
|--------------------------------------------------|--------------------------|
|--------------------------------------------------|--------------------------|
|--------------------------------------------------|--------------------------|
|--0-0-0-0-0-0-0-0-5-5-5-5-5-4-4-4-8-8-8-8-8-8-8-8-|--11-11-11-11-11-11-11-11-|
                                             Repeat
Second time ends with

|--------------------------------------------------------------------------------------|
|--------------------------------------------------------------------------------------|
|--------------------------------------------------------------------------------------|
|--11-11-11-11-11-11-11-11---11-11-11-11-11---11-11-11-11-11-11-11-11---11-11-11-11-11-|
|--11-11-11-11-11-11-11-11---11-11-11-11-11---11-11-11-11-11-11-11-11---11-11-11-11-11-|
|--11-11-11-11-11-11-11-11---11-11-11-11-11---11-11-11-11-11-11-11-11---11-11-11-11-11-|



Small riff with volume down

|----------------------------------------------------------------------------------|
|----------------------------------------------------------------------------------|
|----------------------------------------------------------------------------------|
|----------------------------------------------------------------------------------|
|--------------------------------15------------------------------------------------|
|--17-0-17-0-17-0-17-0-17-0-17-0----17-16-17-16-0-16-0-16-0-16-0-14-0-14-0-14-0-14-|




Chorus

|--------------------------------------------------------------------------------------|
|--------------------------------------------------------------------------------------|
|--------------------------------------------------------------------------------------|
|--------------------------------------------------------------------------------------|
|--------------------------------15----------------------------------------------------|
|--17-0-17-0-17-0-17-0-17-0-17-0----17-16-17-16-0-16-0-16-0-16-0-16-0-16-0-16-17-17-17-|

|--------------------------------------------------------------------------------------|
|--------------------------------------------------------------------------------------|
|--------------------------------------------------------------------------------------|
|--------------------------------------------------------------------------------------|
|--------------------------------------------------------------------------------------|
|--14-0-14-0-14-0-14-0-14-0-14-0-14-16-16-16-12-0-12-0-12-0-12-0-12-0-12-0-12-10-10-10-|

|--------------------------------------------------------------------------------------|
|--------------------------------------------------------------------------------------|
|--------------------------------------------------------------------------------------|
|--------------------------------------------------------------------------------------|
|--------------------------------15----------------------------------------------------|
|--17-0-17-0-17-0-17-0-17-0-17-0----17-16-17-16-0-16-0-16-0-16-0-16-0-16-0-16-17-17-17-|

|--------------------------------------------------------------------------------------|
|--------------------------------------------------------------------------------------|
|--------------------------------------------------------------------------------------|
|--------------------------------------------------------------------------------------|
|--------------------------------------------------------------------------------------|
|--14-0-14-0-14-0-14-0-14-0-14-0-14-16-16-16-12-0-12-0-12-0-12-0-12-0-12-0-12-17-17-17-|



Intro Riff as outro
|--------------------------------------------------------------------------------|
|--------------------------------------------------------------------------------|
|--------------------------------------------------------------------------------|
|--------------------------------------------------------------0-4-2-0-2-4-2-0-2-|
|--------------------------------15----------------------------0-4-2-0-2-4-2-0-2-|
|--17-0-17-0-17-0-17-0-17-0-17-0----17-16-17-16-0-16-0-16-0-16-0-4-2-0-2-4-2-0-2-|
P.M                                                            . . . . . . . . .
 
|----------------------------------------------------------------------------------|
|----------------------------------------------------------------------------------|
|----------------------------------------------------------------------------------|
|----------------------------------------------------------------------------------|
|--------------------------------15------------------------------------------------|
|--17-0-17-0-17-0-17-0-17-0-17-0----17-16-17-16-0-16-0-16-0-16-0-14-0-14-0-14-0-14-|

|--------------------------------------------------------------------------------|
|--------------------------------------------------------------------------------|
|--------------------------------------------------------------------------------|
|--------------------------------------------------------------0-4-2-0-2-4-2-0-2-|
|--------------------------------15----------------------------0-4-2-0-2-4-2-0-2-|
|--17-0-17-0-17-0-17-0-17-0-17-0----17-16-17-16-0-16-0-16-0-16-0-4-2-0-2-4-2-0-2-|
P.M                                                            . . . . . . . . .
            
Submit corrections

comments powered by Disqus
↑ Back to top | Mudvayne Tabs for Closer. Lyrics for acoustic guitar and electric guitar. 1 Tablatures and chords are parodies/interpretations of the original songs. You may use it for private study, scholarship, research or language learning purposes only