» » »

What People Are Made Of Tabs (ver.1)

Artists:  A B C D E F G H I J K L M N O P Q R S T U V W X Y Z # 

What People Are Made Of Tabs (ver.1)

Modest Mouse
Rating:
0/5 (0 votes)

Tabs too difficult? Try these video lessons and learn fast.
                what people are made of 

intro-w/ distrtion 
E------------------------------------------------------------------ 
B------------------------------------------------------------------ 
G-5-5-5-5-5-5-5-5-13-13-13-13-13-13-13-13-13---- 
D-5-5-5-5-5-5-5-5-13-13-13-13-13-13-13-13-13---- 
A-3-3-3-3-3-3-3-3-11-11-11-11-11-11-11-11-11---- 
E------------------------------------------------------------------ 

verse-w/ distortion 
E----------------------------------------------------------- 
B----------------------------------------------------------- 
G----------------------------------------------------------- 
D-9-9-9-9-9-9-9-9-5-5-5-5-5-5------------------------- 
A-9-9-9-9-9-9-9-9-5-5-5-5-5-5------------------------- 
E-7-7-7-7-7-7-7-7-3-3-3-3-3-3-------------------------- 
rag weed tall better...... 

E----------------------------------------------------------- 
B----------------------------------------------------------- 
G----------------------------------------------------------- 
D-9-9-9-9-9-9-9-9-5-5-5-5-5-5------------------------- 
A-9-9-9-9-9-9-9-9-5-5-5-5-5-5------------------------- 
E-7-7-7-7-7-7-7-7-3-3-3-3-3-3-------------------------- 
First page of the book of blue.......... 


Enjoi
            
Tabs too difficult? Try these video lessons and learn fast.


comments powered by Disqus
↑ Back to top | Tablatures and chords are parodies/interpretations of the original songs. You may use it for private study, scholarship, research or language learning purposes only