>
 >
Lampshades On Fire

Lampshades On Fire Guitar Tabs

Modest Mouse - Lampshades On Fire chords, tabs, tablatures, lyrics

Guitar lessons | Add/correct | Request | Top 50 tabs Artists:  A B C D E F G H I J K L M N O P Q R S T U V W X Y Z 0-9

Lampshades On Fire Guitar Tabs – Modest Mouse

CD, Sheet music, Poster

Do you like Lampshades On Fire? Share with your friends now
ChordsTabsUkulele
Modest Mouse
Lampshades on Fire

unreleased - as performed live @ The Gorge, George, WA. 5/29/11
The entire show is up for download at npr.org

Times indicate the first occurance according to the video at:

Or play along with me; recorded myself doing this tab live:


Standard tuning. Moderate overdrive so that gentle picking/strumming still sounds clean



e---------------------8----8--8--8--------------------------------|
B---11---11--11--11--10---10-10-10---11---11--11--11--8---8--8--8-|
G---12---12--12--12---9----9--9--9---10---10--10--10--7---7--7--7-|
D-----------------------------------------------------------------|
A-10-------10--10---8-------8---8---------------------------------|
E----------------------------------11-------11--11---8-----8--8---|
0:00    4x
Clean. Piano part



--------------------------|
-11-8----11-10-------11-8-|
---------------10---------|
--------------------------|
--------------------------|
--------------------------|
0:39    2x
OD



-----------------------------------------------------------|
-11-8----11-10----------11-10\8------------12-10\8---------|
---------------10----10---------10\7--5------------10\7-10-|
-----------------------------------------------------------|
-----------------------------------------------------------|
-----------------------------------------------------------|
0:59    2x
Give it some good vibrato the second time



-----------------------------------------------------------------------------------------------|
----------11----------------------11-----------------------------------------------------------|
----12----------12----12----12---------12----12-----------13---12----------------13---12-------|
-13----13----------13----13----13---------13----13-11-13----------13-11-13-11-13---------13-11-|
-----------------------------------------------------------------------------------------------|
-----------------------------------------------------------------------------------------------|
1:49
Scratching leads up to this. Palm mutes, higher notes ring out more. Listen for pattern



-------------|----------------------|
----------11-|-------------------11-|
----12-------|-12----12----12-------|
-13----13----|----13----13----13----|
-------------|----------------------|
-------------|----------------------|
1:54           3x



---------------------------------------------------------------------------------------------|
------------------------------------11-------------------------------------------------------|
-13p12-------12----12----12----12--------13p12----------------13--------------13----12-------|
-------13-------13----------13-----------------13----13-11-13--------13-11-13----------13-11-|
---------------------------------------------------------------------------------------------|
---------------------------------------------------------------------------------------------|
1:59




-------------|----------------------|
----------11-|-------------------11-|
----12-------|-12----12----12-------|
-13----13----|----13----13----13----|
-------------|----------------------|
-------------|----------------------|
2:04           3x



-------------------------------------------------|-----------------------------|
-------------------------------------------------|-----------------------------|
-10-10-10-10-12-12-10-10\-8--8--8-10-10--8-10--8/|12-12-12-12-12-13-12-13-12~~-|
-12-12-12-12-12-12-12-12\10-10-10-10-10-10-10-10/|13-13-13-13-13-13-13-13-13~~-|
-------------------------------------------------|-----------------------------|
-------------------------------------------------|-----------------------------|
2:09
Clean



-6--6--6---6-6-6---5--5--5---5-5-5-------------6-6-6\--3--3--3---6-6-6-|
-8--8--8---8-8-8---6--6--6---6-6-6---8--8--8---8-8-8\--3--3--3---6-6-6-|
-8--8--8---8-8-8---7--7--7---7-7-7---8--8--8---8-8-8\--0--0--0---3-3-3-|
-------------------------------------8--8--8-----------5--5--5---------|
-------------------------------------6--6--6-----------5--5--5---------|
-----------------------------------------------------------------------|
2:18



------------------------------------------------------------|
------------------------------------------------------------|
----5-----5--7--5--3--2--5--2--5--2---------------------0---|
-7--5--7--5--7--5--3--2--5--2--5--2--/8--7--8--7--8--7--0---|
-7--3--7--3--5--3--1--0--3--0--3--0--/8--7--8--7--8--7--1^--|
-5-----5-----------------------------/6--5--6--5--6--5--3^--|
2:38
OD



-----------------------------------------------------------|
-----------------------------------------------------------|
-7--5--7--5--7--5--3--2--5--2--5--2---------------------0--|
-7--5--7--5--7--5--3--2--5--2--5--2--/8--7--8--7--8--7--0--|
-5--3--5--3--5--3--1--0--3--0--3--0--/8--7--8--7--8--7--1^-|
-------------------------------------/6--5--6--5--6--5--3^-|
2:47    2x
Same, except A5 becomes D5.



Scratching at 3:06





Comments


Popular Modest Mouse tabs & chords
Florida Bass Tabs
Gravity Rides Everything 2 Bass Tabs
World At Large Bass Tabs
Dog Paddle Tabs
Head South Tabs
Here It Comes 2 Tabs
It Always Rains On A Picnic 1 Tabs
Perfect Disguise 1 Tabs
Satin In A Coffin 1 Tabs
Wild Pack Of Family Dogs 5 Tabs


Song lyrics



↑ Back to top | Tablatures and chords are parodies/interpretations of the original songs. You may use it for private study, scholarship, research or language learning purposes only
© 2014 AZChords.com Contact us | Privacy policy | DMCA | Add/correct tabs | Request tabs | Top 50 tabs