» » »

Modest Mouse, Karmas Pavement Bass tabs (ver.1)

Artists:  A B C D E F G H I J K L M N O P Q R S T U V W X Y Z # 

Karmas Pavement Bass tabs (ver.1)

Modest Mouse Tabs
 Rating:
4/5 (4 votes)
Karmas Pavement lessons Tabs too difficult? Try these video lessons and learn fast
1
                Starts around (0:32)

E|5___3___-----1___
A|---------3___----        X7
D|-----------------
G|-----------------


E|55553333----1111
A|--------3333----        X4
D|----------------
G|----------------


E|-55/7-33/5------11/3_           (2 1’s, not an 11)   
A|-----------33/5------   X15  
D|---------------------
G|---------------------


E|-55/7-33/5----------
A|------------33/56565
D|--------------------
G|--------------------

E|-----------------------------
A|-----------------------------
D|-----------------------------
G|99997777/5__5____12-12-14-14     X2




E|---5---3---------------
A|---------4-------------
D|-----------------------
G|999-777-5---12-12-14-14          X2




E|5___3____-----1___
A|---------3___-----
D|------------------
G|------------------
plz let me know any corrections
            
Submit corrections

comments powered by Disqus
↑ Back to top | Modest Mouse Bass for Karmas Pavement. Lyrics for acoustic guitar and electric guitar. 1 Tablatures and chords are parodies/interpretations of the original songs. You may use it for private study, scholarship, research or language learning purposes only