» » »

Modest Mouse, Birds Vs Worms Tabs (ver.4)

Artists:  A B C D E F G H I J K L M N O P Q R S T U V W X Y Z # 

Birds Vs Worms Tabs (ver.4)

Modest Mouse Tabs
 Rating:
4/5 (4 votes)
Birds Vs Worms lessons Tabs too difficult? Try these video lessons and learn fast
                Birds vs. Worms - Modest Mouse

Have fun !


add this note for the very beginning

E|--------------------|
B|--------------------|
G|----------14--------|
D|--------------------|
A|--------------------|
E|--------------------|

Intro 

E|-----------------------------------------------------------------------------------------------|
B|-----------------------------------------------------------------------------------------------|
G|---------------11-------11------------14-12-11-------------------------------------------------|
D|----------12-----12-12----12---14--12-----------14------------------------------------------11-|
A|----------------------------------------------------12-14-14-14-14-12-12-14-14-14-14--12--14---|
E|-----------------------------------------------------------------------------------------------|

then before the chorus add at the end of this

E|---------------------|
B|---------------------|
G|---------------------|
D|------14-14-14-14----|
A|---------------------|
E|---------------------|

then its ..

E|---------------------------------------|
B|---------------------------------------|
G|------------9-9-9-9-9-------4-4-4-4-4--|
D|---------------------------------------|
A|------------7-7-7-7-7-------2-2-2-2-2--|
E|---------------------------------------|




E|-----------------------------------------------------------------------------------------------|
B|-----------------------------------------------------------------------------------------------|
G|---------------11-------11------------14-12-11-------------------------------------------------|
D|----------12-----12-12----12---14--12-----------14------------------------------------------11-|
A|----------------------------------------------------12--14-14-14-14-12-12-14-14-14-14--12--14--|
E|-----------------------------------------------------------------------------------------------|

outro



E|---------------|
B|---------------|
G|---------------|
D|------12-------|
A|---------------|
E|---------------|
            
Submit corrections

comments powered by Disqus
↑ Back to top | Modest Mouse Tabs for Birds Vs Worms. Lyrics for acoustic guitar and electric guitar. Tablatures and chords are parodies/interpretations of the original songs. You may use it for private study, scholarship, research or language learning purposes only