» » »

Dead Kings Rise Tabs (ver.2)

Artists:  A B C D E F G H I J K L M N O P Q R S T U V W X Y Z # 

Dead Kings Rise Tabs (ver.2)

Misfits
Rating:
0/5 (0 votes)

Tabs too difficult? Try these video lessons and learn fast.
                Tuning: Standard


Palm Muting = .
Slide =   /
Let Ring = r
Bend = b

Drums Starts Off-
Riff A
E-------------------------------------------------------------------------------------------------------
B-------------------------------------------------------------------------------------------------------
G-6r---8r---9r--6r---6r---8r---9r--6r---6r---8r---9r--6r--6-6666666--8-8888888--9-9999999--6-------9-8--
D-6r---8r---9r--6r---6r---6r---9r--6r---6r---8r---9r--6r--6-6666666--8-8888888--9-9999999--6-------9-8--
A-4r---6r---7r--4r---4r---6r---7r--4r---4r---6r---7r--4r--4-4444444--6-6666666--7-7777777--4-------7-6--
E-------------------------------------------------------------------------------------------------------
							    ........   ........   .......
Riff B
E----------------------------------
B----------------------------------
G------------------9-9-9-9---------
D-6-6-6-6--9-9-9-9-9-9-9-9---------
A-6-6-6-6--9-9-9-9-7-7-7-7--4-7-6--
E-4-4-4-4--7-7-7-7-----------------

Riff C
E----------------------------------------
B----------------------------------------
G------------------9-9-9-9-11-11-11-11---
D-6-6-6-6--9-9-9-9-9-9-9-9-11-11-11-11---
A-6-6-6-6--9-9-9-9-7-7-7-7- 9- 9- 9- 9---
E-4-4-4-4--7-7-7-7-----------------------
		   . . . .  .  .  .  .

Chorus                          
E----------------------------------|---------
B----------------------------------|---------
G-8-8-8-8-9-9-9-9------------------|-9-8-----
D-8-8-8-8-9-9-9-9-9-9-9-9-9-9-9-9--|-9-8-----
A-6-6-6-6-7-7-7-7-9-9-9-9-9-9-9-9--|-7-6-----
E-----------------7-7-7-7-7-7-7-7--|---------
                  . . . . . . . .


Order:
Riff A    1x
Riff B    5x
Riff C    1x
Chorus    4x
Riff B    3x
Riff C    1x
Chorus    4x
Chorus    4x    (do not palm mute the B5 chord these times)
Then end with varations of the intro
            
Tabs too difficult? Try these video lessons and learn fast.




comments powered by Disqus
↑ Back to top | Tablatures and chords are parodies/interpretations of the original songs. You may use it for private study, scholarship, research or language learning purposes only